Give Kudos?
Are you sure you want to give kudos to cmtboy?

Add To Songbook?
Are you sure you want to add this song to your songbook?


2,630 bands | 34,426 songs
Search: Register FREE! | Login
Browse Songs:
Browse Bands:
Tool Panel
Discuss This Song

1 2 3 4 5





Steve Holy - Good Morning Beautiful (Solo)
Album: Blue Moon (2000)
Submitter: cmtboy (2) on 3/23/03
Month Views: 14 | Total Views: 10,884
Moderator: Ray Terry | Report This Song?
Song Tools

Comment

Songbook

Kudos

Show Chords

Print

Good Morning Beautiful by Steve Holy (Solo)



     Play this smoothly with a slide.


 E-------------------------------------------
 B--------15------------12/13\12-------------
 G--12/16----14/16\12------------14\12-11/12-
 D--------------------14---------------------
 A-------------------------------------------
 E-------------------------------------------


      

    It can also be played this way:

 
 E-------10----------------------------------
 B--8/12----10/12\8---12/13\12-10\8-7/8------
 G------------------9------------------------
 D-------------------------------------------
 A-------------------------------------------
 E-------------------------------------------
 Comments (click here to add a non-facebook comment)
Home | FAQs | Privacy | Terms | Advertise | Contact
Top 100 Tab Sites