Give Kudos?
Are you sure you want to give kudos to pardekin?

Add To Songbook?
Are you sure you want to add this song to your songbook?


2,675 bands | 34,833 songs
Search: Register FREE! | Login
Browse Songs:
Browse Bands:
Tool Panel
Discuss This Song

1 2 3 4 5





Sugarland - Hello (Intro)
Album: Twice the Speed of Life (2004)
Submitter: pardekin (0) on 2/13/06
Month Views: 8 | Total Views: 2,810
Moderator: GeetarGirl96 | Report This Song?
Song Tools

Comment

Songbook

Kudos

Show Chords

Print

Hello  by Sugarland --Twice the Speed of Life

I am not certain if this is the exactly right; I have never seen the video 
or have watched them play, but I was messing around and thought this was pretty 
neat to play at the beginning.
 
***Capo on 3rd***

                    D  U  D U D U   D U D U D U
--------------------3--3--3-3-3-3---3-3-3-3-3-3--
--3-3---------------2--2--2-2-2-2---2-2-2-2-2-2--
--2---2----3-3-3----0--0--0-0-0-0---0-0-0-0-0-0--
--0----0---2----2---0--0--0-0-0-0---0-0-0-0-0-0--
--1--1-----1--1-----0--0--0-0-0-0---0-0-0-0-0-0--
--0--------0--------3--3--3-3-3-3---3-3-3-3-3-3--

                             
--------------------3--------3--
--3-3---------------2-2------2--
--2---2----3-3-3----0----0---0--
--0----0---2----2---0-----0--0--
--1--1-----1--1-----0--0-----0--
--0--------0--------3--------3--

*Note the G chord on top should be played relatively quick with a short pause between 
the first two strums. Oh, also if anyone knows the exact intro I would love to see it. 
*D = strum down, U = strum up
 Comments (click here to add a non-facebook comment)
Home | FAQs | Privacy | Terms | Advertise | Contact
Top 100 Tab Sites