Give Kudos?
Are you sure you want to give kudos to guitarviper?

Add To Songbook?
Are you sure you want to add this song to your songbook?


2,732 bands | 35,202 songs
Search: Register FREE! | Login
Browse Songs:
Browse Bands:
Tool Panel
Discuss This Song

1 2 3 4 5



Terri Clark - Working Girl (Lead)
Album: Pain to Kill (2003)
Submitter: guitarviper (1) on 2/10/03
Month Views: 1 | Total Views: 3,076
Moderator: Nashvillechick | Report This Song?
Song Tools

Comment

Songbook

Kudos

Show Chords

Print

Working Girl - Lead
Terri Clark
Tabbed by Guitarviper

Intro:
------------------------------------------------------------------
--11-9-8-6-4-6-6br-4--11-9-8-6--11-9-8-6-4-6-6br-4--11-11/13-8-6--
------------------------------------------------------------------
------------------------------------------------------------------
------------------------------------------------------------------
------------------------------------------------------------------

1st & 2nd Fills:
------------------------------------
--11-9-8-6-4-6-6br-4--11-11/13-8-6--
------------------------------------
------------------------------------
------------------------------------
------------------------------------

Solo:
First Lead:
(Actually one octave lower, baritone guitar or fx)
       -----------------------
       -----------------------
       --------1-0---------0--
       --3br-1-----3br-1-3----
       -----------------------
       -----------------------
Second Lead:
-----------------------------------
-----------------------------------
-----------------------------------
--------5h6-8-6-5------------------
----6-8-----------8------8---------
--8-----------------8/10---10\8-6--
 Comments (click here to add a non-facebook comment)
Home | FAQs | Privacy | Terms | Advertise | Contact
Top 100 Tab Sites