Give Kudos?
Are you sure you want to give kudos to guitarviper?

Add To Songbook?
Are you sure you want to add this song to your songbook?


2,725 bands | 35,156 songs
Search: Register FREE! | Login
Browse Songs:
Browse Bands:
Tool Panel
Discuss This Song

1 2 3 4 5



The Ranch - Ghost In This Guitar (Tab)
Submitter: guitarviper (8) on 8/26/02
Month Views: 11 | Total Views: 2,561
Moderator: wiseguymarshall | Report This Song?
Song Tools

Comment

Songbook

Kudos

Show Chords

Print

Ghost In This Guitar
The Ranch
Guitarviper
This is tabbed in the same key as lmofle's chord version
To be finished when I figure it all out later.
Intro                                    
---------------------------------------------------------------------------------------------
--8-7-8--10-8-7-8--8-7-8-10-10/12------------------------------------------------------------
--9-9-9---9-9-9-9--9-9-9--9--9/11----2b-2b-2br-0---0-2b-0----------7------9----11br----------
-------------------------------------------------2-------------------------------------------
-------------------------------------------------------------7h8h9---9h10---11---------------
---------------------------------------------------------------------------------------------

First Solo
(Sit back and let him go...)
------12-----12---12-----12-----12-----12-----12----17-15~-------10---------------7-10-------
--15b----15b----15b---15b----15b----15b---15b----15----------10b----10r-10-10----------7-----
-------------------------------------------------------------------------------9b------------
---------------------------------------------------------------------------------------------
---------------------------------------------------------------------------------------------
---------------------------------------------------------------------------------------------

--7----------------------------------12-10--------12-10--------12-10--------12-10------------
----10-7--------------7----------10b-------12-10b-------12-10b-------12-10b-------12-10b-----
---------9brp7---7-9b---9-7------------------------------------------------------------------
---------------9------------9----------------------------------------------------------------
---------------------------------------------------------------------------------------------
---------------------------------------------------------------------------------------------
                                                                    trill all these
--12-10---------14br-12---------------------------------------------------7h8-12h13-10-12-18-
--------12-10-----------15br-12----------------------------------------7h8-------------------
--------------------------------14br-12-----------------------7/9-7-7h8----------------------
----------------------------------------14br-12----------------------------------------------
------------------------------------------------14br-12-10\9---------------------------------
---------------------------------------------------------------------------------------------
 Comments (click here to add a non-facebook comment)
Home | FAQs | Privacy | Terms | Advertise | Contact
Top 100 Tab Sites