Give Kudos?
Are you sure you want to give kudos to axehappy?

Add To Songbook?
Are you sure you want to add this song to your songbook?


2,747 bands | 35,276 songs
Search: Register FREE! | Login
Browse Songs:
Browse Bands:
Tool Panel
Discuss This Song

1 2 3 4 5



The Ranch - Tangled Up In Love (Tab)
Submitter: axehappy (10) on 8/23/04 1 comment
Month Views: 2 | Total Views: 2,900
Moderator: wiseguymarshall | Report This Song?
Song Tools

Comment

Songbook

Kudos

Show Chords

Print

The Ranch - Tangled Up In Love (tab)

By axehappy  -  axehappy at countrytabs.com


Play this with capo on 3rd fret,
Chord names and shapes are relative to position of capo.

Also the chords I've tabbed are easiest for if you're picking the
song... so a lot are only partial chords.
You can get away with leaving a lot of the alternate bass notes
out if you're just strumming.



Am7    =  x02010                       D7        =   xx0212

D      =  xx0232                       D/E       =   xx2232

D/F#   =  xx4232 or 2x0232             G         =   xx5433 or 320033

Em     =  xx2000                       Bm        =   x24432

C      =  x32010                       C/D       =   xx001x
 
C/E    =  xx201x                       C/F#      =   xx401x

Cmaj7  =  x32003                       G/B       =   x20033

F      =  x33211                       D(add9)   =   xx0230


************************************************************************


Am7  D7  Am7  D7

INTRO




Am7                             D7
You know the cards are stacked against this 
Am7                    D7
 As we surrender our defenses
Am7                        D      D/E  D/F#  G
 And I've torn down all my fences just for   you 
        D/F#    Em
And you feel it too
     Bm    C
What do we do
      C      D      Am7     D7  Am7  D7
Do we run or see it through


Am7                 D7
 The longer we're together
Am7                    D7  
 It just keeps gettin' better
                 Am7 
And you hide your little love letters
 D         D/E   D/F#  G
Around the house for   me
         D/F#     Em
And it's plain to see
            Bm     C      C/D  C/E  C/F# G 
That you'll always be all I'll ev - er   need
    D/F#    Em
The webs we spun
     Bm   C
Wove into one
            Am7     D     Cmaj7
And left us tangled up in love


               G           Am7     
You squeeze my hand I understand
        G D/F# G   D Cmaj7
About a woman  and a man
           G/B             F    D/F#
I love the way you make me feel
           D(add9)       Am7 
You got me tangled up in love



Am7  D7  Am7  D7  Am7  D  D/E  D/F#  G
INSTRUMENTAL


    D/F#    Em
The webs we spun
     Bm   C
Wove into one
        Am7     D     Cmaj7
Left us tangled up in love



               G           Am7     
You squeeze my hand I understand
        G D/F# G   D Cmaj7
About a woman  and a man
           G/B             F    D/F# 
I love the way you make me feel
           D(add9)       Am7   D7  Am7  D7
You got me tangled up in love

                         Am7   D7  (repeat these chords to end over lyrics)
You got me tangled up in love



************************************************************************



INTRO PICKING EXAMPLE

   Am7            D7             Am7            D7

E------------0----------2--3p2-------------0----------2---|
B---0h1--0h1--1----0h1--------1---0h1--0h1--1----0h1------|
G------0-------0------2---2----2-----0-------0------2-----|
D-------2---2---2-0----0-0------------2---2---2-0----0----|
A--0-----------------------------0------------------------|
E---------------------------------------------------------|



INSTRUMENTAL SOLO  (relative to capo position)


  Am7          D7    Am7                      D7

E-----------------------------------------------------
B-----------------------------------------------------
G-----------------------------------------------------
D-------------------------7-9-10p9p7--7--------7/9-7--
A--5/7-7/8\7-5-5-------5/7----------10-10p9p7-9-------
E---------------5/7\5---------------------------------

   Am7             D    D/E  D/F#    G

E--5/7-7-7-5-3h5p3\2-3p2-----------------|
B-----------------------3----------------|
G------------------------2p0-0h2-4/5-4---|
D---------------------------4------------|
A----------------------------------------|
E----------------------------------------|

 Comments (click here to add a non-facebook comment)
Beautiful..
Amazeing tab Axe!
-rune | 8/28/2004
Home | FAQs | Privacy | Terms | Advertise | Contact
Top 100 Tab Sites