Give Kudos?
Are you sure you want to give kudos to axehappy?

Add To Songbook?
Are you sure you want to add this song to your songbook?


2,722 bands | 35,151 songs
Search: Register FREE! | Login
Browse Songs:
Browse Bands:
Tool Panel
Discuss This Song

1 2 3 4 5



Tim McGraw - All I Want Is A Life (Intro)
Album: All I Want (1995)
Submitter: axehappy (40) on 11/4/02 2 comments
Month Views: 10 | Total Views: 6,052
Moderator: jhempel24 | Report This Song?
Song Tools

Comment

Songbook

Kudos

Show Chords

Print

Tim McGraw  -  All I Want Is A Life (intro)

By axehappy  -  axehappy at countrytabs.com


***************************************************************************************

b   =   bend                                       p   =   pulloff

h   =   hammer-on                                  /   =   slide up

\   =   slide down

***************************************************************************************


   G                                  C    Bb   F         G     C       Bb  F

E----3------------------------------------------------------------------1--1--------
B----3------6-----------------------------------1------------------------1--1-------
G--5b-6p5p3--3b-------------------0-0-0-0---3-3-2------3-0--0-0-0-0--2/3--3--2-3b-0-
D----------5---5p3----------------0-0-2-2---3-3-3-0h1h2-----0-0-2-2-----------------
A-----------------5-4-3-1b-3-1-------------1----------------------------------------
E-----------------------------1b----------------------------------------------------

   G   C    Bb   F          G    C    Bb        F    G

E-----------------------------------------------------|
B----------------1------------------------------------|
G--0-0-0-0---3-3-2------3-0--0-0-0-0------------------|
D--0-0-2-2---3-3---0h1h2-----0-0-2-2-----3------------|
A-----------1-------------------------3/5-5\3-1-3-----|
E------------------------------------------------1b---|
 Comments (click here to add a non-facebook comment)
exellent job
-patrickcarp | 5/30/2005
exellent job
-patrickcarp | 5/30/2005
Home | FAQs | Privacy | Terms | Advertise | Contact
Top 100 Tab Sites