Give Kudos?
Are you sure you want to give kudos to Utah123?

Add To Songbook?
Are you sure you want to add this song to your songbook?


2,722 bands | 35,151 songs
Search: Register FREE! | Login
Browse Songs:
Browse Bands:
Tool Panel
Discuss This Song

1 2 3 4 5



Tim McGraw - Do You Want Fries With That (Tab)
Album: Live Like You Were Dying (2004)
Submitter: Utah123 (0) on 1/15/06
Month Views: 6 | Total Views: 5,383
Moderator: jhempel24 | Report This Song?
Song Tools

Comment

Songbook

Kudos

Show Chords

Print

tune your 6th (E) string down to a D. Mute the 6th string at the 12th fret, and 
the next time you hit it slide back down to the 3rd fret, and then hit the 
string open. It really isn't that hard to do from there, but I should talk 
about the bends on the 4th string. You really don't release the bend, you just 
grab the 3rd fret on the 4th string, and pull off to an open string. m=mute, 
s=slide, p=pull off, b=bend 



----------------------------------------|-------------------------------------------
----------------------------------------|------------------------------------------
----------------------------------------|-------------------------------------------
---------------------0-----3p0----------|--------------0--3p0----5b7----3p0--------
-------------------------------------3--|---2--3----------------------------------
--m12---12s3---0-----------------m0-----|----------m0--------------------------m0-



----------------------------------------|----------------------------
----------------------------------------|----------------------------
----------------------------------------|----------------------------
---0----3p0---------------------------0-|---3p0-----5b7-----3p0------
-------------------3---2---3------------|----------------------------
-------------m0----------------m0-------|---------------------------0-
 Comments (click here to add a non-facebook comment)
Home | FAQs | Privacy | Terms | Advertise | Contact
Top 100 Tab Sites