Give Kudos?
Are you sure you want to give kudos to axehappy?

Add To Songbook?
Are you sure you want to add this song to your songbook?


2,722 bands | 35,147 songs
Search: Register FREE! | Login
Browse Songs:
Browse Bands:
Tool Panel
Discuss This Song

1 2 3 4 5



Tim McGraw - I Like It, I Love It (Solo)
Album: All I Want (1995)
Submitter: axehappy (19) on 12/14/03 2 comments
Month Views: 14 | Total Views: 10,336
Sound Byte: Listen
Moderator: jhempel24 | Report This Song?
Song Tools

Comment

Songbook

Kudos

Show Chords

Print

Tim McGraw  -  I Like It, I Love It  (solo)

By axehappy  -  axehappy at countrytabs.com


*****************************************************************************



   1/2 step bend......................

E--15--15--15--15--15--15--15--15--15---------8-11p10p8--------------------
B--16b-16b-16b-16b-16b-16b-16b-16b-16b\--11b~~---------11p10p8-11b---------
G-----------------------------------------------------------------8b-------
D-------------------------------------------------------------------10p8---
A-----------------------------------------------------------------------10-
E--------------------------------------------------------------------------

                          slide solo starts
E---------------------------|
B--8b-8b--------------------|
G--8b-8b-------8b-----------|
D-------10p8---8b-10-8b-----|
A-----------10---------10---|
E---------------------------|
 Comments (click here to add a non-facebook comment)
I noticed that this tab has no comments, so I had to leave one. This tab is DEAD ON. Awesome! Great job!
-MK41144 | 6/1/2004
Can you figure out the slide guitar part? I know I can do it ,but I'm lazy.
-qzunie | 1/4/2005
Home | FAQs | Privacy | Terms | Advertise | Contact
Top 100 Tab Sites