Give Kudos?
Are you sure you want to give kudos to STRAWHATS7?

Add To Songbook?
Are you sure you want to add this song to your songbook?


3,307 bands | 38,091 songs
Search: Register FREE! | Login
Browse Songs:
Browse Bands:
Tool Panel
Discuss This Song

1 2 3 4 5



Tim McGraw - Southern Voice (Intro)
Album: Number One Hits (2010)
Submitter: STRAWHATS7 (1) on 4/25/11
Month Views: 487 | Total Views: 4,761
Moderator: jhempel24 | Report This Song?
Song Tools

Comment

Songbook

Kudos

Show Chords

Print

Well it is basically two guitars.The first is playing the "lead"
and the second is playing the chords "kith richard's style"
Here I write both oh them.


Guitar1
*=keep it bent 
E-----------------------------------------------------------------
B-----------------------3-----------------------------------------
G-------4b(6)*6r(4)-2---2-----------------------------------------
D---------------------4-0-----------------------------------------
A-----------------------------------------------------------------
E-----------------------------------------------------------------

Guitar2 chords
     let ring
E---5-------------------------------------------------------------
B---5---------------------------7--7-7-8-7------------------------
G---6---------------------------7--7-7-7-7------------------------
D---7---------------------------7--7-7-9-7------------------------
A---7-------------------------------------------------------------
E---5-------------------------------------------------------------

 Comments (click here to add a non-facebook comment)
Home | FAQs | Privacy | Terms | Advertise | Contact
Top 100 Tab Sites