Give Kudos?
Are you sure you want to give kudos to axehappy?

Add To Songbook?
Are you sure you want to add this song to your songbook?


2,865 bands | 36,224 songs
Search: Register FREE! | Login
Browse Songs:
Browse Bands:
Tool Panel
Discuss This Song

1 2 3 4 5



Tim McGraw - The Cowboy In Me (Lead)
Album: Set This Circus Down (2001)
Submitter: axehappy (56) on 2/20/02 3 comments
Month Views: 17 | Total Views: 10,885
Moderator: jhempel24 | Report This Song?
Song Tools

Comment

Songbook

Kudos

Show Chords

Print

Tim McGraw - The Cowboy In Me (picking & lead)

By axehappy - axehappy at countrytabs.com

***********************************************************************


*********************
*  PICKING PATTERNS *
*********************


PATTERN FOR 'D' CHORD

E-----0------2p0-------|
B----3-3-3------3------|
G---2---2---0----0h2---|
D--0-------0-----------|
A----------------------|
E----------------------|


PATTERN FOR 'A' CHORD

E-----------|
B-----2-----|
G----2-2-2--|
D---2---2---|
A--0--------|
E-----------|


********
* LEAD *
********


1st solo

E---------------------------------------------------|
B--5/7-7-7-5-5--------------------------------------|
G-------------7-7-------------------------0---------|
D----------------5-5/7----7--0-2-2/4-4-4-4-4-2-0----|
A----------------------5/9--------------------4-----|
E---------------------------------------------------|


2nd solo (to end of song)

E--------------------------------------------------------------
B--5/7~~~5p3-5-5br-5p3-------------------------------------10--
G---------------------2/4-2-2--------2---------------7-9/11----
D-------------------------------0-2h4--2/4-2-2-0--5/7----------
A------------------------------0--------------4----------------
E--------------------------------------------------------------


E------10-12-12bh~~12~12~~12~12r--10----------------------
B--8/10-------------------------12--10/12--10~~~\---------
G----------------------------------------11------------7--
D--------------------------------------------------7-9-7--
A--------------------------------------------------9-9----
E---------------------------------------------------------

                             this part is only a rough guide..........
E----------------------------/10-10-10-10-10-10-10-10-10-10-10-10-10--
B--10--10-10-----------------/10-10-10-10-10-10-14-10-10-10-10-10-14--
G--9bh-9--9r-7-9-9bh-9r-7-7--/11-11-11-11-11-11-11-11-11-11-11-11-11--
D---------------------------------------------------------------------
A---------------------------------------------------------------------
E---------------------------------------------------------------------

...................................
E--10-10-12-10-10-12p10-10-12p10-10--9brbr--------0-------------
B--10-10-10-10-10-10-10-10-10-10-10-------10-10\--0-5b-5br-3-3--
G--11-11-11-11-11-11-11-11-11-11-11-----------------------------
D---------------------------------------------------------------
A---------------------------------------------------------------
E---------------------------------------------------------------


E------------------------12br-12pbr-12pbr-12pbr-12pbr-12pbr-12pbr-
B-----------------------------------------------------------------
G---------2-------------------------------------------------------
D--0-0h2/4-4\2-0--------------------------------------------------
A---------------2p0-2p0-------------------------------------------
E-----------------------------------------------------------------


E--12pbr-10-----10-10-10-10-10-10-10-10---------------------------
B----------10\--10-10-10-10-8--8--7--7--5-5-3-5-5br-p3---3/5-3-3--
G---------------7--7--7--7--7--7--7--7----------------4-2---------
D-----------------------------------------------------------------
A-----------------------------------------------------------------
E-----------------------------------------------------------------

                                         song starts fading out......
E---------------5---5-------------------------------17---------------
B----------3-5/7-5/7-7\5-3-3-3---3-3-------15-17-17b--17br-15-15h17--
G-------2-4------------------2h4-2-2--12/14--------------------------
D--0-2-4--------------------4----------------------------------------
A--------------------------------------------------------------------
E--------------------------------------------------------------------

..........................finishes about here.
E--17---------------------|
B----17b-17-17br-15-15----|
G-------------------------|
D-------------------------|
A-------------------------|
E-------------------------|
 Comments (click here to add a non-facebook comment)
gave it a ten close to perfection.
-yinielin | 3/18/2004
This is a good one. Thanks for tabing it.
I figured this one out myself a while ago, but I made a mistake on the last notes on the D chord. But after I read yours and listened carefully to the song I realized you're right. Keep up the good work.
-sumodano | 10/15/2005
you wouldnt know the chords for the chorus, would you?
-TripeB88 | 10/21/2012
Home | FAQs | Privacy | Terms | Advertise | Contact
Top 100 Tab Sites