Give Kudos?
Are you sure you want to give kudos to mkrousie?

Add To Songbook?
Are you sure you want to add this song to your songbook?


2,635 bands | 34,497 songs
Search: Register FREE! | Login
Browse Songs:
Browse Bands:
Tool Panel
Discuss This Song

1 2 3 4 5





Toby Keith - A Little Less Talk (Lead)
Submitter: mkrousie (7) on 8/2/12
Month Views: 56 | Total Views: 4,777
Moderator: Korry | Report This Song?
Song Tools

Comment

Songbook

Kudos

Show Chords

Print

Toby Keith:   Little Less Talk

Guitar Lick During First Little Break

E[----5-7/9-9-7-5h7p5\---------------------------------------------------------]
B[---5--------------5\---------------------------------------------------------]
G[-----------------------------------------------------------------------------]
D[-----------------------------------------------------------------------------]
A[-----------------------------------------------------------------------------]
E[-----------------------------------------------------------------------------]

Guitar Solo:
         A
E[--7b-(9)-\------------------------------------------------------------------------]
B[--8b-(10)\---------7-5---------------------------------------------------5-7-10---]
G[--7b(9)--\-------------6-5\2-4/6-4b-4b-4b2--------2-4b-2-4----2-4-6--------------]
D[-----------------------------------------------------------2h4--------------------]
A[----------------------------------------------------------------------------------]
E[----------------------------------------------------------------------------------]
        D                                                    A
E[-------------------------------------------------------------------------]
B[-12b-10-12p10-10----10-12-13-12-10-5/8b------8h10\2--2-2-----------------]
G[------------------11--------------------------------------0-4-2----------]
D[----------------------------------------------------------------2--------]
A[------------------------------------------------------------------0------]
E[-------------------------------------------------------------------------]
       E                                                                A
E[------12-12--------12--12-------12-12-14b-12--12-15/17-15\12-------------------------------]
B[-/15---------12/15-----------15----------------------------------12-14-12-14-12\8-10b\-----]
G[-------------------------------------------------------------------------------------------]
D[-------------------------------------------------------------------------------------------]
A[-------------------------------------------------------------------------------------------]
E[-------------------------------------------------------------------------------------------]
 Comments (click here to add a non-facebook comment)
Home | FAQs | Privacy | Terms | Advertise | Contact
Top 100 Tab Sites