Give Kudos?
Are you sure you want to give kudos to the legend?

Add To Songbook?
Are you sure you want to add this song to your songbook?


2,635 bands | 34,497 songs
Search: Register FREE! | Login
Browse Songs:
Browse Bands:
Tool Panel
Discuss This Song

1 2 3 4 5





Toby Keith - Angry American (2) (Solo)
Album: Unleashed (2002)
Submitter: the legend (0) on 7/22/03
Month Views: 19 | Total Views: 7,446
Moderator: Korry | Report This Song?
Song Tools

Comment

Songbook

Kudos

Show Chords

Print

H = hammer on
P = Pull off
br = bend and release
bh = bend and hold
/ = slide up
\ = slide down
r = release from holding the bend or bh

e--------------------------
b--------------------------
g----------------7--------2
d----0---------------------
a-0h2---5/7-5-7/9----2br-0-
E--------------------------


e-----10---9----7--------7---
b-------------------------7--
g-9/11--7/9--7/9--10br--7----
d----------------------------
a----------------------------
E----------------------------


e----------------------------
b----------------------10----
g-7--9-9-7-7--9br-7-9bh---9r-
d----------------------------
a----------------------------
E----------------------------

e--------------------------
b--------------------------
g--9br---------------------
d-7----9br--7br-4/2--------
a-------------------2br-0--
E--------------------------



I'm not sure about the last grouping I have but it's pretty close

and yes I know that I spelled angry wrong in the name


peace out
Chad "The Legend" Wall

p.s. if anyone finds any fault with the last group of notes please post the 
right ending in the comment box.
 Comments (click here to add a non-facebook comment)
Home | FAQs | Privacy | Terms | Advertise | Contact
Top 100 Tab Sites