Give Kudos?
Are you sure you want to give kudos to Deleted Member?

Add To Songbook?
Are you sure you want to add this song to your songbook?


2,635 bands | 34,497 songs
Search: Register FREE! | Login
Browse Songs:
Browse Bands:
Tool Panel
Discuss This Song

1 2 3 4 5





Toby Keith - Angry American (Solo)
Album: Unleashed (2002)
Submitter: Deleted Member (0) on 11/25/02 5 comments
Month Views: 16 | Total Views: 14,118
Sound Byte: Listen
Moderator: Korry | Report This Song?
Song Tools

Comment

Songbook

Kudos

Show Chords

Print

    7/9 means slide to
     
    5^ means bend up
 
    2^(2) means bend up and let the note ring and 
          let it back down in same fret

    p under something means to pull off 




         D                 A              Bm
e :------------------------------------------------------
B :-------------------------------------11---9--7--------
G :--------------7----------------- 2---10---9--7--------
D :------------------------------------------------------
A :-0-5-7-5 7/9---------2 (2) 0 2/4----------------------
E :------------------------------------------------------

        F#m          G               D 
e :------7/2----------------------------------5----------
B :-----------------3-5-5^(5)-3------5^(5)3-5^-5^--------
G :-9^-6-------------------p-------------p---------------
D :------------------------------------------------------
A :------------------------------------------------------
E :------------------------------------------------------

      A                                      D
e :------------------------------------------------------
B :---5^(5)-2^(2) ---------------------------------------
G :-2-------------4^(4)-2--------------------------------
D :-------------------p---2------------------------------
A :-------------------------2-(2)-0----------------------
E :------------------------------------------------------
                                            Singer goes  
 Comments (click here to add a non-facebook comment)
This sound is Emerson Drive, Not BRC.
-dgreene635 | 1/15/2004
I would check Cmtboys tab on this one.
-yinielin | 6/8/2003
Your rythym at the beginning is a little off. But now that I take a better look its closer then I thouhgt. Sorry.
Just in a different posistion. Cmtboys is a little easier.
-yinielin | 7/11/2003
Learn a solo many ways and you teach yourself to improvise. Ain't nothing wrong with that. Nice job, and I like how you actually used guitar theory in the tabbing of a solo.
-merenjay | 3/12/2005
Lol .. TxJimmy is theory king on CT ... ;)
-EP-Warlord | 3/30/2005
Home | FAQs | Privacy | Terms | Advertise | Contact
Top 100 Tab Sites