Give Kudos?
Are you sure you want to give kudos to mooman2679?

Add To Songbook?
Are you sure you want to add this song to your songbook?


2,635 bands | 34,497 songs
Search: Register FREE! | Login
Browse Songs:
Browse Bands:
Tool Panel
Discuss This Song

1 2 3 4 5





Toby Keith - As Good As I Once Was (Lead)
Album: Honkytonk University (2005)
Submitter: mooman2679 (4) on 7/3/05 4 comments
Month Views: 52 | Total Views: 15,315
Moderator: Korry | Report This Song?
Song Tools

Comment

Songbook

Kudos

Show Chords

Print

This is the rest of the lead for the song.  Hope you enjoy!



mooman2679 at gmail.com





(1st chorus) 

   0:45          0:49               0:56
e-----------|----------------|-------------------------
B-----------|----------------|------10-8-6-4br---------
G-----------|----------------|----------------5/10-7\-
D-----3-5---|----------------|--7/10--8-7-5------------
A--3br---3--|--5br-3-5-------|-------------------------
E-----------|---------3br-1--|-------------------------


1:15 (Intro)


(2nd verse)

   1:25                 1:29                   1:34              1:37
e--------------------|----------------------|-----------------|--------------------
B--------------------|--5/6-8b-8-8br-6-6~~--|-----6~~----8~~--|--6-8b-8b-8b-8br-6~-
G--5b-5-5h7p5-5b-5~--|----------------------|--5/7----7/9-----|--------------------
D--------------------|----------------------|-----------------|--------------------
A--------------------|----------------------|-----------------|--------------------
E--------------------|----------------------|-----------------|--------------------


(2nd chorus)

   2:00            2:04            2:12
e---------------|---------------|-------------------
B---------------|---------------|----10-8-6---------
G---------------|--5---5--------|-------------------
D---------------|---5bh-5r-3~~--|--10--8-7-7/10\----
A--3br-1-3br-3--|---------------|-------------------
E---------------|---------------|-------------------


(Bridge)


(Outro Chorus)

   2:52          2:54                 3:03
e-------------|---------------------|---------------------------
B-------------|--6-6----------------|------10---8---6---4-------
G-------3-5~--|----8----8-8-8-8-----|-----x----x---x---x--------
D-------3-5~--|------8bh-8-8-8-8r\--|---10----8---7---5---------
A--0-3h5-5----|---------------------|--x-----x---x---x---5/10\--
E-------------|---------------------|---------------------------



   3:29
e--------------------------------------------------
B--------------------------------------------------
G--5--5--5-----------------------------------------
D--5b-5bh-5r-3-3-----5b-5br-3-3--------------------
A---------------3br-3--------5--5br-3-5------------
E---------------------------------------3br-1/13~--
 Comments (click here to add a non-facebook comment)
Excellent. Just...excellent.
-mystikal1116 | 7/4/2005
Thanks!
-mooman2679 | 7/4/2005
Thanks for posting this tab but you forgot the intro which is really cool. It requires a behind the nut bend on the open g PUSH HARD!.
pre> - - -
- 1 1
- 0 0
- - -
- - -
1 - -
/pre>




-dsrtmanz | 12/20/2005
I have the intro posted on a seperate tab.
-mooman2679 | 12/20/2005
Home | FAQs | Privacy | Terms | Advertise | Contact
Top 100 Tab Sites