Give Kudos?
Are you sure you want to give kudos to Super247365?

Add To Songbook?
Are you sure you want to add this song to your songbook?


2,630 bands | 34,427 songs
Search: Register FREE! | Login
Browse Songs:
Browse Bands:
Tool Panel
Discuss This Song

1 2 3 4 5





Toby Keith - Beer For My Horses (Intro)
Album: Unleashed (2002)
Submitter: Super247365 (1) on 8/5/02 9 comments
Month Views: 19 | Total Views: 23,402
Moderator: Korry | Report This Song?
Song Tools

Comment

Songbook

Kudos

Show Chords

Print

This probably has a few notes wrong but 
here's the jist of it. I put question 
marks on parts I wasn't sure about but 
there's probably more wrong with it than
just those.

Capo on first

E-6-6-6-6-6-6-6---6-6-6-6------------------
B-6-5-4-----------6-5-4--------------------
G-------6-2-0-2---------6------------------
D------------------------------------------
A------------------------------------------
E------------------------------------------
                            ???????               
E-6-6-6-6-6-6-6----------------------------
B-6-5-4-------------1p0--------------------
G-------6-2-0-2---------0-2-2p0---0--------
D-------------------------------2----------
A------------------------------------------
E------------------------------------------
  ? 
E------------------------------------------
B------------------------------------------
G------------------------------------------
D------------------------------------------
A-3p0---0-----------------------------------
E-----3------------------------------------

 Comments (click here to add a non-facebook comment)
Capo to third fret and play in the key of G

( ) - hit along with other note, but not dominant

b - bend

(h) hammer on optional


|--------------------------------------------
|-3---2---1----------------------------------
|(0)-(0)-(0)--3---0----0---------------------
|------------(0)-(0)-3-0---------------------
|--------------------------------------------
|--------------------------------------------



|--------------------------------------------
|-3---2---1----------------------------------
|(0)-(0)-(0)--3b--0--------------------------
|------------(0)-(0)-------------------------
|--------------------------------------------
|--------------------------------------------


|--------------------------------------------
|-3---2---1----------------------------------
|(0)-(0)-(0)--3---0----0-3-0--------0--------
|------------(0)-(0)-3-0----0(h)3-0---------
|-------------------------------------3-1---
|-----------------------------------------3-
-cntyotlw | 10/12/2002
From playing the tab, the intro
is a lot closer to to the way Super247365
tabbed it out.
Except for two notes, he's right on.
I was watching Toby's lead players do it
and it's off the 6th & 7th frts.
-eric_steinmetz | 5/25/2003
using the capo i think its right on thx

-bilguitar | 7/10/2003
using a capo is easier but navgatuz tab has a good full sound
-leftystrat | 8/4/2003
the correct way

E-/6-6-6--6-6-6-6--6-6-6-6------------
B-/6-5-4-----------6-5-3--------------
G---------6-3---3--------6------------
D-------------6-----------------------
A-------------------------------------
E-------------------------------------

E-6-6-6-6-6-6--6----------------------
B-6-5-4-------------------------------
G-------6-3---3--6p3-3----------------
D-----------6-------6-6p3-3-----------
A------------------------6-4p0--------
E-----------------------------4/6-----

simple simple simple!
-prslegacy | 9/17/2003
I think the confusing thing about this tab
is that the notes are not relative to the
capo, at least not all of them. Playing
with the notes relative to the capo, the
song starts with notes on the 5th fret (or the 6th "real" fret w/o capo). Therefore,
subtracting the high e-string, the notes
should be 5-4-3 (on b) then 5-2-0-2 (on g).
I think this is the most correct way and it
sounds just like the recording. The rest
of the song is then played in A w/capo on 1.
-pdalbey1 | 12/27/2003
capos are for lazy people
-prslegacy | 3/3/2004
I_M_daddy is right on the money.I saw Brent Mason play it on the Willie Nelson special on CMT with the capo.
-Echoplex | 3/23/2005
NO! I'ts

e
b--5-4-3-2
g---------2------2 ... ...
D------------2-4
A
E
-sam393 | 12/31/2005
Home | FAQs | Privacy | Terms | Advertise | Contact
Top 100 Tab Sites