Give Kudos?
Are you sure you want to give kudos to WildCard76?

Add To Songbook?
Are you sure you want to add this song to your songbook?


2,960 bands | 36,675 songs
Search: Register FREE! | Login
Browse Songs:
Browse Bands:
Tool Panel
Discuss This Song

1 2 3 4 5



Toby Keith - Beers Ago (Intro)
Album: Clancy's Tavern (2011)
Submitter: WildCard76 (74) on 4/12/21
Month Views: 192 | Total Views: 581
Moderator: Korry | Report This Song?
Song Tools

Comment

Songbook

Kudos

Show Chords

Print

BEERS AGO
Toby Keith


Intro 

E------------------------------------------------------
B------------------------------------------------------
G----5------------5---------5---5--------3-------------
D----5------------5---------5---5---b7-------57-------- x 2
A-------b6----------b6---------------------------b6----
E----------8-----------8-------------------------------

E-----------------------------------
B-----------------------------------
G-----------------------------------
D-----------------------------------
A-------------3----b5-b5-b5---3-----
E----3---b5-------------------------

REPEAT
 Comments (click here to add a non-facebook comment)
Home | FAQs | Privacy | Terms | Advertise | Contact
Top 100 Tab Sites