Give Kudos?
Are you sure you want to give kudos to karaokebare?

Add To Songbook?
Are you sure you want to add this song to your songbook?


2,630 bands | 34,427 songs
Search: Register FREE! | Login
Browse Songs:
Browse Bands:
Tool Panel
Discuss This Song

1 2 3 4 5





Toby Keith - Big Blue Note (intro/outro) (Intro)
Album: Honkytonk University (2005)
Submitter: karaokebare (0) on 12/6/05
Month Views: 22 | Total Views: 3,308
Moderator: Korry | Report This Song?
Song Tools

Comment

Songbook

Kudos

Show Chords

Print

This is my first tab, but this is how I play the intro/outro

e---------------------------------------
b---------------------5-----------------
g-----------------5-----7----5-------------
d------------5-7-----------7-----7----------
a----3-3/7-----------------------------------
E---------------------------------------

e---------------------------------------
b---------------------8-5----------------
g-----------------5--------5----5-------------
d------------5-7--------------7-----7----------
a----3-3/7-----------------------------------
E---------------------------------------
 Comments (click here to add a non-facebook comment)
Home | FAQs | Privacy | Terms | Advertise | Contact
Top 100 Tab Sites