Give Kudos?
Are you sure you want to give kudos to ChiefKomosakawa?

Add To Songbook?
Are you sure you want to add this song to your songbook?


2,632 bands | 34,463 songs
Search: Register FREE! | Login
Browse Songs:
Browse Bands:
Tool Panel
Discuss This Song

1 2 3 4 5





Toby Keith - Pick Em Up And Lay Em Down (Solo)
Album: Pull My Chain (2001)
Submitter: ChiefKomosakawa (1) on 3/5/04
Month Views: 10 | Total Views: 2,305
Moderator: Korry | Report This Song?
Song Tools

Comment

Songbook

Kudos

Show Chords

Print

Toby Keith- Pick em up and lay em down

Capo 2- all notes are relative to capo


E-------------------------------------------------------13--------------
B------------------------------------------10--------/13---15b-15b-15b\-
G-----------------------------7-9-7h9p7-9bh--9r7-9~---------------------
D-----------------------5-7/9-------------------9-----------------------
A-0---------------3-5-7-------------------------------------------------
E---5p3p0-3-0-3-5-------------------------------------------------------


E----19-17-15----------15-----------------------------------------------
B-------------18-17-15---17p15--15--------------------------------------
G-17--------------------------17--17p15--15h16p15-----------------------
D--------------------------------------17---------18p17p15---17~--------
A----------------------------------------------------------17-----------
E-----------------------------------------------------------------------
 Comments (click here to add a non-facebook comment)
Home | FAQs | Privacy | Terms | Advertise | Contact
Top 100 Tab Sites