Give Kudos?
Are you sure you want to give kudos to WildCard76?

Add To Songbook?
Are you sure you want to add this song to your songbook?


2,632 bands | 34,449 songs
Search: Register FREE! | Login
Browse Songs:
Browse Bands:
Tool Panel
Discuss This Song

1 2 3 4 5





Toby Keith - Should've Been A Cowboy (Solo)
Album: Toby Keith (1993)
Submitter: WildCard76 (216) on 11/20/02 1 comment
Month Views: 9 | Total Views: 9,170
Moderator: Korry | Report This Song?
Song Tools

Comment

Songbook

Kudos

Show Chords

Print

E------------------------------------------------------------------------------
B------------------------------------------------------------------------------
G------------------------------------------------------------------------------
D-----------0-----------------0--------------0-----------------0---------------
A------0h2------0-2-3---0h2h3---------0h2--------0-2-3---0h2h3-----------------
E---3------------------------------3-------------------------------------------


E------------------------------------------------------------------------------
B------------------------------------------------------------------------------
G------------------------------------------------------------------------------
D-----------0-----------------0--------------0----------------------------0----
A------0h2------0-2-3---0h2h3---------0h2--------0-2-----3(hold)---------------
E---3------------------------------3--------------------------------b2---------
 Comments (click here to add a non-facebook comment)
Where the slides? and those hammer ons are not right. Other than that its alright

-ExtraSN | 7/11/2005
Home | FAQs | Privacy | Terms | Advertise | Contact
Top 100 Tab Sites