Give Kudos?
Are you sure you want to give kudos to geetar81?

Add To Songbook?
Are you sure you want to add this song to your songbook?


2,831 bands | 36,009 songs
Search: Register FREE! | Login
Browse Songs:
Browse Bands:
Tool Panel
Discuss This Song

1 2 3 4 5



Toby Keith - You Shouldn't Kiss Me Like This (Solo)
Album: How Do You Like Me Now (1999)
Submitter: geetar81 (3) on 3/18/02 3 comments
Month Views: 10 | Total Views: 9,065
Moderator: Korry | Report This Song?
Song Tools

Comment

Songbook

Kudos

Show Chords

Print

E------------------7------7^8---7----------7------7^8-------
B-/8--/8---7^8-----8---8--8-8---8----/8----8--8---8-8-------
G-/7--/7-----------------------------/7---------------------
D-----------------------------------------------------------
A-----------------------------------------------------------
E-----------------------------------------------------------

E--5--------5^7^5--------7------------------------------
B--5----8------------8---7---888^7777^5---555^7^5------
G----------------------------------------------------7--
D-------------------------------------------------------
A-------------------------------------------------------
E-------------------------------------------------------

E--------------7-8-10--------6-8^6---8^10-13-10-8---
B------8-8-10----------8-10-------------------------
G-7^9-----------------------------------------------
D---------------------------------------------------
A---------------------------------------------------
E---------------------------------------------------

E--6-6^8^6-5----------
B----------------8----
G----------------7----
D---------------------
A---------------------
E---------------------

 - Geetar
 Comments (click here to add a non-facebook comment)
am i the only person who absoultly loves this song
-SpiderMonkey | 12/26/2004
Nope, it's a great song!!!
-abenvenga35 | 2/2/2005
Wow...this is just a great great song! Thank you for this.
-WillyJoe | 9/20/2005
Home | FAQs | Privacy | Terms | Advertise | Contact
Top 100 Tab Sites