Give Kudos?
Are you sure you want to give kudos to guitarviper?

Add To Songbook?
Are you sure you want to add this song to your songbook?


2,862 bands | 36,210 songs
Search: Register FREE! | Login
Browse Songs:
Browse Bands:
Tool Panel
Discuss This Song

1 2 3 4 5



Tracy Byrd - A Good Way To Get On My Bad Side (Lead)
Album: Ten Rounds (2001)
Submitter: guitarviper (4) on 6/3/02
Month Views: 9 | Total Views: 4,060
Moderator: redneck4ever | Report This Song?
Song Tools

Comment

Songbook

Kudos

Show Chords

Print

Good Way To Get On My Bad Side
Tracy Byrd

Intro:
-------------------------------------------------------------------------
-------------------------------------------------------------------------
---------------------------5-------------------------------------2-------
-------3---------------5/7---7p5\3-------3---------3-0-----------0-----0-
-3h5-5---5-5-3h5-3h5-5-------------3h5-5---5-5-3h5-----3-0---------0h3---
-----------------------------------------------------------4-3-1---------

First Solo:
-------------------------------------------------------------------------
-------------------------------------------------------------------------
-12-10h12p10-9-10p9p7-9p7\5-7-5h7p5-4-5p4p2-4---2------------------------
----------------------------------------------5---0-5-----0-----0-----0--
------------------------------------------------------3h5---3h5---3h5----
-------------------------------------------------------------------------

-------------------------------------------------------------------------
-----------------------------13-15-13-------------------13---------------
-----5---5---5---------12/14----------14-12-14-12----------14-12---------
-5h7---7---7---7\5-3------------------------------15-12----------15-12---
---------------------5---------------------------------------------------
-------------------------------------------------------------------------

If there is any one who can tab out the slide solo please email me at 
guitarviper at yahoo.com
 Comments (click here to add a non-facebook comment)
Home | FAQs | Privacy | Terms | Advertise | Contact
Top 100 Tab Sites