Give Kudos?
Are you sure you want to give kudos to Shantel?

Add To Songbook?
Are you sure you want to add this song to your songbook?


2,862 bands | 36,210 songs
Search: Register FREE! | Login
Browse Songs:
Browse Bands:
Tool Panel
Discuss This Song

1 2 3 4 5



Tracy Byrd - Drinkin' Bone (Intro)
Album: The Truth About Men (2003)
Submitter: Shantel (30) on 11/6/03 1 comment
Month Views: 9 | Total Views: 5,717
Moderator: redneck4ever | Report This Song?
Song Tools

Comment

Songbook

Kudos

Show Chords

Print

Drinkin' Bone - Tracy Byrd [Intro]

2 options to play it, I like playing the C as a barre, the
second way is a little easier


Option 1: (C as a barre)

     (F)        (Bb)        (F)        (C)

E----1-1---------1-1--------1-1--------3-3--------  repeat into verse
B----1-1---------3-3--------1-1--------5-5--------
G----2-2---------3-3--------2-2--------5-5--------
D----3-3---------3-3---0-3--3-3--------5-5-----5--
A----3-3----0-3--1-1--1-----3-3---0-3--3-3--3-7---
E----1-1--1-----------------1-1--1----------------



Option 2: (C open)

     (F)        (Bb)        (F)        (C)     

E----1-1---------1-1--------1-1--------0-0------- 
B----1-1---------3-3--------1-1--------1-1-------
G----2-2---------3-3--------2-2--------0-0-----0-
D----3-3---------3-3---0-3--3-3--------2-2----2--
A----3-3----0-3--1-1--1-----3-3---0-3--3-3--3----
E----1-1--1-----------------1-1--1---------------
 Comments (click here to add a non-facebook comment)
Great tab Shantel
-Meltinpix | 9/29/2005
Home | FAQs | Privacy | Terms | Advertise | Contact
Top 100 Tab Sites