Give Kudos?
Are you sure you want to give kudos to Koichi Kondo?

Add To Songbook?
Are you sure you want to add this song to your songbook?


2,620 bands | 34,365 songs
Search: Register FREE! | Login
Browse Songs:
Browse Bands:
Tool Panel
Discuss This Song

1 2 3 4 5





Tracy Byrd - Every Time I Do (Tab)
Album: It's About Time (1999)
Submitter: Koichi Kondo (1190) on 3/9/17
Month Views: 29 | Total Views: 591
Moderator: redneck4ever | Report This Song?
Song Tools

Comment

Songbook

Kudos

Show Chords

Print

Every Time I Do
Written by Shawn Camp & Taylor Dunn
Recorded by Tracy Byrd

Intro.         G                 G             G                  G    G7 
E------------||-----------------|-------------|------------------|-------------|
B------------||-----------------|-------------|-------3----------|-------------|
G--------0-2-||-2/4--2/4p2-0----|---------0-2-|-2/4----4⧹2-0-----|-0---2/4⧹2-0-|
D----0/2-----||---------------2-|-0---0/2-----|--------------2-0-|-------------|
A------------||-----------------|-------------|------------------|-------------|
E------------||-----------------|-------------|------------------|-------------|

  C              D              G                G        // 
E|--------------|--------------|----------------|-------------||
B|--------------|--------------|----------------|-------------||
G|------2/4p2-0-|------2/4p2-0-|-0--------------|-------------||
D|-2------------|-0------------|------2-0-------|-------------||
A|--------------|--------------|----------0/2-0-|-------------||
E|--------------|--------------|----------------|-3-----------||
 Comments (click here to add a non-facebook comment)
Home | FAQs | Privacy | Terms | Advertise | Contact
Top 100 Tab Sites