Give Kudos?
Are you sure you want to give kudos to vukev?

Add To Songbook?
Are you sure you want to add this song to your songbook?


2,753 bands | 35,352 songs
Search: Register FREE! | Login
Browse Songs:
Browse Bands:
Tool Panel
Discuss This Song

1 2 3 4 5



Tracy Byrd - Holdin' Heaven (Solo)
Album: Tracy Byrd (1993)
Submitter: vukev (3) on 1/5/21
Month Views: 161 | Total Views: 161
Moderator: redneck4ever | Report This Song?
Song Tools

Comment

Songbook

Kudos

Show Chords

Print

You need a capo on fret 1, and these notes are not with reference to the capo (so 1 is actually open with the capo on).

e -------------------1-------------------------------------------------
B --6----------------1-------------------------------------------------
G --5b7--7r-p3--------3br-p-1--------------------------------------
D ---------------5----------------3-----------------------------------
A -------------------------------------1--4p3-2-1-----------------8--
E --------------------------------------------------4b--1-----/10-----

e ----------------------------------------------8-------12-------15-------18--
B ------------------------------------------------------------------------------
G --------------------------------------x-x--/9---x-/12----x-/15----x-/19------
D -------3------------------------3--------------------------------------------
A --4h5----5p3p1-------------------------------------------------------------
E ------------------4br--1---4h5----------------------------------------------
 Comments (click here to add a non-facebook comment)
Home | FAQs | Privacy | Terms | Advertise | Contact
Top 100 Tab Sites