Give Kudos?
Are you sure you want to give kudos to MattCruiz?

Add To Songbook?
Are you sure you want to add this song to your songbook?


2,862 bands | 36,210 songs
Search: Register FREE! | Login
Browse Songs:
Browse Bands:
Tool Panel
Discuss This Song

1 2 3 4 5



Tracy Byrd - Holding Heaven In My Arms Tonight (Intro)
Album: Tracy Byrd (1993)
Submitter: MattCruiz (0) on 5/4/05
Month Views: 12 | Total Views: 5,476
Moderator: redneck4ever | Report This Song?
Song Tools

Comment

Songbook

Kudos

Show Chords

Print

E---------------------------------------
A---------------------------------------
D---------------------------------------
G--2------------------------------------x3
B----6-5-3--5-3---0---------------------
E---------------6-----------------------

E---------------------------------------
A---------------------------------------
D---------------------------------------
G--2-----------------3------------------
B----6-5-3h5h6---3h5--------------------
E--------------6------------------------


Not completely sure about this one. I think this is 
how it goes. sounds right to me, but i cant hear everthing.
Need some feedback on this. Tell me how it sounds to you.
 Comments (click here to add a non-facebook comment)
Home | FAQs | Privacy | Terms | Advertise | Contact
Top 100 Tab Sites