Give Kudos?
Are you sure you want to give kudos to axehappy?

Add To Songbook?
Are you sure you want to add this song to your songbook?


2,870 bands | 36,242 songs
Search: Register FREE! | Login
Browse Songs:
Browse Bands:
Tool Panel
Discuss This Song

1 2 3 4 5



Tracy Byrd - Just Let Me Be In Love (Solo)
Album: Ten Rounds (2001)
Submitter: axehappy (75) on 9/21/02 1 comment
Month Views: 31 | Total Views: 5,370
Moderator: redneck4ever | Report This Song?
Song Tools

Comment

Songbook

Kudos

Show Chords

Print

Tracy Byrd  -  Just Let Me Be In Love  (solo)

By axehappy  -  axehappy at countrytabs.com


**************************************************************************************

p   =   pulloff                                           h   =   hammer-on

**************************************************************************************



E------------------8-8-8-8--8-10-11-10--8-------------------------------------
B--------------8-11----------------------8-8-8-8-11p9-9-8-8-------------------
G--------7-8-10--------------------------------------------10-10-8-8-7h8p7--7-
D----8-10-----------------------------------------------------------------10--
A--10-------------------------------------------------------------------------
E-----------------------------------------------------------------------------


E----------------8-10-11--10-8-8-10-11-13-11-10-8--6-6----------------------
B---------------8-----------------------------------9-8-9-6-8-6---------6-6-
G---------7-8-10--------10--8-8--10-12-13-12-10-8------------8-7-8-5-7-8----
D--10-9-10------------------------------------------------------------------
A---------------------------------------------------------------------------
E---------------------------------------------------------------------------


E------------------------|
B------------------------|
G--8-7-5-4-5-7-------5---|
D-------------5-5-6-8----|
A------------------------|
E------------------------|

 Comments (click here to add a non-facebook comment)
just enough of the right stuff.
-pick49 | 6/28/2015
Home | FAQs | Privacy | Terms | Advertise | Contact
Top 100 Tab Sites