Give Kudos?
Are you sure you want to give kudos to WildCard76?

Add To Songbook?
Are you sure you want to add this song to your songbook?


2,629 bands | 34,421 songs
Search: Register FREE! | Login
Browse Songs:
Browse Bands:
Tool Panel
Discuss This Song

1 2 3 4 5





Tracy Byrd - Ten Rounds With Jose Cuervo (2) (Intro)
Album: Ten Rounds (2001)
Submitter: WildCard76 (175) on 11/2/02 1 comment
Month Views: 9 | Total Views: 2,790
Moderator: redneck4ever | Report This Song?
Song Tools

Comment

Songbook

Kudos

Show Chords

Print

E--------------------------------------------
B--------------------------------------------
G--------------------------------------------
D---------0----2/4--0----------0h2-----------
A-----0h2-----------------2-2----------------
E--------------------------------------------


E--------------------------------------------
B--------------------------------------------
G--------------------------------------------
D---------0----2/4--0---2p0-----2------------
A-----0h2--------------------2---------------
E--------------------------------------------


E--------------------------------------------
B--------------------------------------------
G--------------------------------------------
D---------0----2/4--0----------0h2-----------
A-----0h2-----------------2-2----------------
E--------------------------------------------

E--------------------------------------------
B--------------------------------------------
G--------------------------------------------
D---------0----2/4--0---2p0-----0------------
A-----0h2--------------------2---------------
E--------------------------------------------
 Comments (click here to add a non-facebook comment)
This should be a 10. Sounds perfect! Good job!
-petunia | 1/7/2004
Home | FAQs | Privacy | Terms | Advertise | Contact
Top 100 Tab Sites