Give Kudos?
Are you sure you want to give kudos to WildCard76?

Add To Songbook?
Are you sure you want to add this song to your songbook?


2,635 bands | 34,516 songs
Search: Register FREE! | Login
Browse Songs:
Browse Bands:
Tool Panel
Discuss This Song

1 2 3 4 5





Tracy Byrd - Watermelon Crawl2 (Intro)
Album: No Ordinary Man (1994)
Submitter: WildCard76 (106) on 10/23/02 1 comment
Month Views: 14 | Total Views: 6,311
Moderator: redneck4ever | Report This Song?
Song Tools

Comment

Songbook

Kudos

Show Chords

Print

E-------------------------------------------------
B-------------------------------------------------
G-------------------------------------------------
D-----5-3----------------5-3---3-5---3-3----------
A----------5-3---------------5--------------------
E---------------6p--3---------------------6p---3--

E-------------------------------------------------
B-------------------------------------------------
G-------------------------------------------------
D------5-3---3-5---3-3----------------------------
A----------5--------------------------------------
E-------------------------6p---3------------------
 Comments (click here to add a non-facebook comment)
g
-justinmcclain | 10/27/2002
Home | FAQs | Privacy | Terms | Advertise | Contact
Top 100 Tab Sites