Give Kudos?
Are you sure you want to give kudos to musicmixstudio?

Add To Songbook?
Are you sure you want to add this song to your songbook?


2,751 bands | 35,343 songs
Search: Register FREE! | Login
Browse Songs:
Browse Bands:
Tool Panel
Discuss This Song

1 2 3 4 5



Traditional - Cielito Lindo (Tab)
Submitter: musicmixstudio (6) on 10/1/08
Month Views: 11 | Total Views: 15,882
Help! We need a moderator for this artist. | Report This Song?
Song Tools

Comment

Songbook

Kudos

Show Chords

Print

Tuning: Standard (EADGBE)


This is a traditional courtship song sung in Spanish, I've included the words for the verse with the
words that occur on the corresponding beat.


This is in G major.

El verso(Verse):

e|-------------------------------------------------------------------------------|
B|---------------7------------------7--------------------------------------------|
G|---4-----------7------------------7--------------------------------------------|
D|---5-5----2/4--7---5-5-------2--4-7-----5--5-----------------------------------|
A|---5-----------5------------------5--------------------------------------------|
E|---3---------------------------------------------------------------------------|
 1. Ese    lunar que tienes   cielito  lindo
 2. De-La  sierra morena      cielito  lindo


e|--------------------------------------------------------------------------------|
B|-----------7--5-----------------------------------------------------------------|
G|-----------7--5---5-------------------------------------------------------------|
D|---2h4-----7--5---7-------------------------------------------------------------|
A|-----------5--3---7-------------------------------------------------------------|
E|------------------5-------------------------------------------------------------|
 1.  junto-a la  boca
 2.  viene    bajando


e|-------------------------------------------------------------------------------|
B|---------------------7---------------------------------------------------------|
G|------------------0--7--7--7---------------------------------------------------|
D|--4---4---4---4---2--7---------------------------------------------------------|
A|------------------2--5---------------------------------------------------------|
E|------------------0------------------------------------------------------------|
 1.No  se  lo  des  a  nadie
 2.Un  par de  ojitos-negros


e|------------------------------------------------------------------------------|
B|------------------------------------------------------------------------------|
G|----------------------------------------4-------------------------------------|
D|--------------------------------------5---------------------------------------|
A|-2-3-5-5--------5---3----/2-----0---5-----------------------------------------|
E|----------------------------------3-------------------------------------------|
1.cielito-lindo  que a-mi  me    toca
2.cielito-lindo  de   contrabando


El Choro(Chorus):

e|------------------------------------------------------------------------------|
B|------------------------------------------------------------------------------|
G|-----------------0------------------------------------------------------------|
D|-----9--7---5----2-------7--7-----5---5---/9--5-------------------------------|
A|-----------------2------------------------------------------------------------|
E|-----------------0------------------------------------------------------------|
     Ay  Ay  Ay   Ay     Canta      y  no  llores

e|-----------------------------------------------------------------|
B|-----------------------------------------------------------------|
G|-----------------------------------------------------------------|
D|------------------------10--10-7---------------------------------|
A|---5--7------5--7--7---------------------------------------------|
E|-----------------------------------------------------------------|
   Porque     cantando    se alegran

e|-------------------------------|
B|-------------------------------|
G|-------------------------------|
D|-----------------------5~~~~~--|
A|-5-7----5-7-7--------5---------|
E|-------------------------------|
  Cielito-lindo      los corazones


After the second time you play the Chorus end on a G Major Chord:

e|-3----||
B|-0----||
G|-0----||
D|-0----||
A|-2----||
E|-3----||



Source:andres.ali at gmail.com
 Comments (click here to add a non-facebook comment)
Home | FAQs | Privacy | Terms | Advertise | Contact
Top 100 Tab Sites