Give Kudos?
Are you sure you want to give kudos to musicmixstudio?

Add To Songbook?
Are you sure you want to add this song to your songbook?


2,732 bands | 35,223 songs
Search: Register FREE! | Login
Browse Songs:
Browse Bands:
Tool Panel
Discuss This Song

1 2 3 4 5



Traditional - Irish Jig (Tab)
Submitter: musicmixstudio (1) on 10/2/08
Month Views: 3 | Total Views: 2,673
Help! We need a moderator for this artist. | Report This Song?
Song Tools

Comment

Songbook

Kudos

Show Chords

Print

Here is the tab for the Irish Jig.  It's a traditional Irish riff.
It's played fast.   The faster the better.   3/4 time.


e -0--------------0-----0--3--1--0-|-1--------------1-----1--5--3--1--|
b -1--1--1-----1-----1-------------|-3--3--3-----3-----3--------------|
g ----------0----------------------|----------0-----------------------|
d -2-------------------------------|-0--------------------------------|
a ---------------------------------|----------------------------------|
E ---------------------------------|----------------------------------|



e -0--------------0-----0--3--1--0-|-1-----------3--1--0--------------|
b -1--1--1-----1-----1-------------|-3--3--3--3--------1--1--1--1-----|
g ----------0----------------------|-------------------0--------------|
d -2-------------------------------|-0--------------------------------|
a ---------------------------------|----------------------------------|
E ---------------------------------|----------------------------------|


Source:Chris Mandalovic
 Comments (click here to add a non-facebook comment)
Home | FAQs | Privacy | Terms | Advertise | Contact
Top 100 Tab Sites