Give Kudos?
Are you sure you want to give kudos to gunnyl?

Add To Songbook?
Are you sure you want to add this song to your songbook?


2,681 bands | 34,877 songs
Search: Register FREE! | Login
Browse Songs:
Browse Bands:
Tool Panel
Discuss This Song

1 2 3 4 5





Traditional - Marine's Hymn (Tab)
Submitter: gunnyl (0) on 7/31/05 2 comments
Month Views: 1 | Total Views: 2,743
Help! We need a moderator for this artist. | Report This Song?
Song Tools

Comment

Songbook

Kudos

Show Chords

Print

Marine’s Hymn
Semper Fidelis!!

E------------------------------------------------------------------------------
A------------------------------------------------------------------------------
D------------------------------------------------------------------------------
G------------------------------------------------------------------------------
B-1---------------5-6-----3-1-----1---------------5-6-----3-1------------------
e--0-3-3-3-3-3-8-3---3-3-1---------0-3-3-3-3-3-8-3---3-3-1---------------------


E------------------------------------------------------------------------------
A------------------------------------------------------------------------------
D------------------------------------------------------------------------------
G------------------------------------------------------------------------------
B-------------------------------------1-----------------6---6-3-1--------------
e-8-7-5-1-5-1-3-5-3-8-7-5-1-5-8-3------0-3-3-3-3-3-8-3-0-3-3-------------------

From the Halls of Montezuma,
To the Shores of Tripoli;
We fight our country's battles
In the air, on land, and sea;

First to fight for right and freedom
And to keep our honor clean;
We are proud to claim the title
Of UNITED STATES MARINE.

Our flag's unfurled to every breeze,
From dawn to setting sun;
We have fought in every clime and place
Where we could take a gun;

In the snow of far off northern lands
And in sunny tropic scenes;
You will find us always on the job --
The UNITED STATES MARINES.

Here's health to you and to our Corps
Which we are proud to serve;
In many a strife we've fought for life
And never lost our nerve;

If the Army and the Navy
Ever look on Heaven's scenes;
They will find the streets are guarded
By UNITED STATES MARINES.

 Comments (click here to add a non-facebook comment)

-gunnyl | 8/1/2005

-gunnyl | 8/2/2005
Home | FAQs | Privacy | Terms | Advertise | Contact
Top 100 Tab Sites