Give Kudos?
Are you sure you want to give kudos to wmweaver?

Add To Songbook?
Are you sure you want to add this song to your songbook?


2,636 bands | 34,516 songs
Search: Register FREE! | Login
Browse Songs:
Browse Bands:
Tool Panel
Discuss This Song

1 2 3 4 5





Travis Tritt - Anymore (Solo)
Album: It's All About to Change (1991)
Submitter: wmweaver (0) on 4/14/03 1 comment
Month Views: 35 | Total Views: 9,175
Moderator: Ray Terry | Report This Song?
Song Tools

Comment

Songbook

Kudos

Show Chords

Print

Solo


B		        F#	     E                  F# 
-----------------------|-----------|-------------------|----
-----------------------|----------4|5p4-----5-4--------|----
--------------6b(8)rp4h|6-------6--|----6-4-----6p4h6/8|6---
-----4-------x---------|-----------|-------------------|----
-4/6---6/9--x----------|-----------|-------------------|----
-----------------------|-----------|-------------------|----


B					      F#
---------14----------------------------------|------------|
--14b(16)--r14-12--14p12h14^--14p12h14-------|------------|
---------------------------------------13brbr|11----------|
---------------------------------------------|------------|
---------------------------------------------|------------|
---------------------------------------------|------------|

E
----12-16-14p12-12\9-12p9------
--12---------------------------
-------------------------------
-------------------------------
-------------------------------
-------------------------------
                                         F#  
-----------------------------------------------------
--12p9--9--------------------------------------------
11----11-11--9---------------------------------------
------------9--11-9-11-9--9\8--8\6--6\4--4^^^^^^^^^--
-----------------------------------------------------
-----------------------------------------------------

I finally figured the ending out by spending an hour on it i Love the way he tags this ending 
 Comments (click here to add a non-facebook comment)
awesome job it sounds right on
-guitarfreak57 | 5/24/2005
Home | FAQs | Privacy | Terms | Advertise | Contact
Top 100 Tab Sites