Give Kudos?
Are you sure you want to give kudos to jocore83?

Add To Songbook?
Are you sure you want to add this song to your songbook?


2,635 bands | 34,497 songs
Search: Register FREE! | Login
Browse Songs:
Browse Bands:
Tool Panel
Discuss This Song

1 2 3 4 5





Travis Tritt - Anymore W/capo (Tab)
Album: It's All About to Change (1991)
Submitter: jocore83 (1) on 7/7/04 3 comments
Month Views: 55 | Total Views: 10,930
Moderator: Ray Terry | Report This Song?
Song Tools

Comment

Songbook

Kudos

Show Chords

Print

Here's Travis Tritt's "Anymore" as heard on his 1991 album 'It's All 
About To Change'. This song is played with a capo placed on the 
fourth fret, and all chords are played relative to the capo's position. 
Most of the song is fingerpicked, so you can just pick around the 
likcs I've tabbed out. For the part where he plays a B, you can play 
a B7, which I think sounds a little better than a plain B. Enjoy.



Chords used in this song:

   G        D        C        B7   or   B       Em

e--3--   e--2--   e--0--   e--2--    e-----   e--0--
B--3--   B--3--   B--1--   B--0--    B--4--   B--0--
G--0--   G--2--   G--0--   G--2--    G--4--   G--0--
D--0--   D--0--   D--2--   D--1--    D--4--   D--2--
A--2--   A-----   A--3--   A--2--    A--2--   A--2--
E--3--   E-----   E-----   E-----    E-----   E--0--



Intro lick, played over G - C - G - C:

e--3--2-----------0------------3--2------------0----------
B--3-----3--1--3----1h3--------3-----3--1--3----1h3-------
G--0--------0---------------0--0--------0---------------0-
D--0--------2-----------0h2----0--------2-----------0h2---
A--2--------3------------------2--------3-----------------
E--3---------------------------3--------------------------

Verse 1:

Lick A:                          Lick B:

e---------------------------     e-----------
B------1h3-1--1---1---------     B-----------
G-------------0h2-0--0---0--     G-----------
D----2---------------0h2-0--     D-----------
A--3------------------------     A--0--2--3--
E---------------------------     E-----------
                
        G                    D           C         D  
I can't hide the way I feel about you anymore
        G                             
I can't hold the hurt inside, 
         D                      C (Lick A)  D  (Lick B)
keep the pain out of my eyes anymore
C                    D        C                         D     
  My tears no longer waiting,   my resitence ain't that strong
C                   D        B7            Em
  My mind keeps recreating a life with you alone
          C           D
  And I'm tired of pretending
C         D          G 
  I don't love you anymore.


This part is played between the 1st & 2nd verse, over G - C:


e--3--2------------0-------------
B--3-----3---1--3----1h3---------
G--0---------0----------------0--
D--0---------2------------0h2----
A--2---------3-------------------
E--3-----------------------------


Verse 2:

       G                       D   
Let me make one last appeal to show you how I feel 
        C       D
  About you
              G                            D
Cause there's no one else I swear holds a candle anywhere
          C (Lick A) D (Lick B)
  Next to you
C                         D
  My heart can't take the beating
C                   D
  Not having you to hold
C                     D         B7             Em
  A small voice keeps repeating deep inside my soul
            C            D
  It says I can't keep pretending 
C         D           G
  I don't love you anymore


Bridge:

Em                                C
  I've got to take this chance or let it pass by
Em                   D
  If I expect to get on with my life



Electric giutar solo played over one whole verse.


End chorus:

C                    D        C                         D     
  My tears no longer waiting,   my resitence ain't that strong
C                   D        B7            Em
  My mind keeps recreating a life with you alone
          C           D
  And I'm tired of pretending
C         D          G 
  I don't love you anymore.

Outro:

e--3--2---------0------------3--2----------0------------3--
B--3----3--1--3---1h3--------3-----3--1--3---1h3--------3--
G--0-------0--------------0--0--------0--------------0--0--
D--0-------2----------0h2----0--------2----------0h2----0--
A--2-------3-----------------2--------3-----------------2--
E--3-------------------------3--------------------------3--
 Comments (click here to add a non-facebook comment)
Great tab!! sounds just great, it's hard to figure out the hammer on and pull offs, like Travis plays it.
-mo_freestyle | 4/20/2005
excellent tab. that is right on the money. I was watchin the video to try to figure it out, but looks like you did all the hard work for me. thanks
-RodeoinProStyle | 11/6/2005
Terrific song, terrific tab. Suggest you try a strumming pattern in line with the beat of the song. It works very well.
-robinbugbee | 2/11/2009
Home | FAQs | Privacy | Terms | Advertise | Contact
Top 100 Tab Sites