Give Kudos?
Are you sure you want to give kudos to Moosehead_07?

Add To Songbook?
Are you sure you want to add this song to your songbook?


2,945 bands | 36,581 songs
Search: Register FREE! | Login
Browse Songs:
Browse Bands:
Tool Panel
Discuss This Song

1 2 3 4 5



Travis Tritt - It's All About The Money (intro) (Intro)
Album: My Honky Tonk History (2004)
Submitter: Moosehead_07 (0) on 1/7/05
Month Views: 86 | Total Views: 2,954
Moderator: Ray Terry | Report This Song?
Song Tools

Comment

Songbook

Kudos

Show Chords

Print

This is pretty easy to learn. Figured out the tab by ear. So don't mind if it 
sketchy. I will try to figure out the rest of the intro.

 Capo 5 - Drop D

-x-----------------------------
-3-3---3--------3-3------------
-2-2---2--------2-2------------
-0-----0-00-3b0-0-----0--00----
-0--0h3---------0--0h3-----0-3-
-0--------------0--------------

-x-----------------------------
-3-3---3--------3-3------------
-2-2---2--------2-2------------
-0-----0-0x-3b0-0-----0--00----
-0--0h3---------0--0h3-----0-3-
-0--------------0--------------

-x--x--------x-x--x-------------
-3--x--------3-3--x-------------
-2--x--------2-2--x-------------  Think it's 2 x...
-0--x------0-0-0--x------00-----
-0--x--0h3---0-0--x--0h3--------
-0--x--------0-0--x-------------
    | 
    |
Here slam your palm against all cords
to cut the sound making it as a hard 
palm mute.
   
   









 Comments (click here to add a non-facebook comment)
Home | FAQs | Privacy | Terms | Advertise | Contact
Top 100 Tab Sites