Give Kudos?
Are you sure you want to give kudos to ruppy22?

Add To Songbook?
Are you sure you want to add this song to your songbook?


2,409 bands | 31,965 songs
Search: Register FREE! | Login
Browse Songs:
Browse Bands:
Tool Panel
Discuss This Song

1 2 3 4 5





Vince Gill - Don't Let Our Love Start Slipping Away (Solo)
Album: Souvenirs (1995)
Submitter: ruppy22 (1) on 3/20/02
Month Views: 73 | Total Views: 5,325
Moderator: Ray Terry | Report This Song?
Song Tools

Comment

Songbook

Kudos

Show Chords

Print

Vince Gill: Don’t let our love start slipping away

Tabbed by: ruppy22

*****************************************************************
h = hammer     b = bend whole note     v = vibrato     / = slide

*****************************************************************

E--7---------------------5-7----------------------7-9------------
B----5-7b-7b---5-5-7—7b-------7b--5-7b—5v--5—5/9-------7b-7b—5v--
G------------6---------------------------------------------------
D----------------------------------------------------------------
A----------------------------------------------------------------
E----------------------------------------------------------------

E---------7-9—9/12v----12-9-------9-----9------------------------
B--5—7h9--------------------12b------12-------------------------
G-------------------------------------------11b-9----9---11--9---
D-------------------------------------------------11-------------
A----------------------------------------------------------------
E----------------------------------------------------------------

E--------12-14b-14b--14-12----14--12--------12-------------------
B--------------------------14------------14----13-11-------------
G-11-13------------------------------------------------9---------
D---------------------------------------------------------11-----
A----------------------------------------------------------------
E----------------------------------------------------------------
 Comments (click here to add a non-facebook comment)
Home | FAQs | Privacy | Terms | Advertise | Contact
Top 100 Tab Sites