Give Kudos?
Are you sure you want to give kudos to WildCard76?

Add To Songbook?
Are you sure you want to add this song to your songbook?


2,629 bands | 34,421 songs
Search: Register FREE! | Login
Browse Songs:
Browse Bands:
Tool Panel
Discuss This Song

1 2 3 4 5





Wade Hayes - Tore Up From The Floor Up (Lead)
Submitter: WildCard76 (168) on 12/11/02
Month Views: 8 | Total Views: 2,000
Moderator: telecasterblast | Report This Song?
Song Tools

Comment

Songbook

Kudos

Show Chords

Print

Intro


E----------------------------------------------------2--------
B----------------------7b-7-5--------5-5----5-5----5---4-2----
G------------------4-6------------6B-----6B-----6B---------4--
D------------2-4-6--------------------------------------------
A--------2-4--------------------------------------------------
E--0-2-4------------------------------------------------------

E--11-10-9--8-7-6-7-4-----3-2-2-1-0-0--------------------------
B--12-11-10-9-8-7-8-7-----5-4-3-3-2-0--------------------------
G-------------------------------------2h3p2p0------------------
D--------------------------------------------2p0---------------
A--------------------------------------------------------------
E--------------------------------------------------------------


E--4-3-2-2-1-0----------------
B--5-4-3-3-2-0----------------
G--------------2p0------------
D------------------2p0--------
A----------------------2p0----
E--------------------------0--
 Comments (click here to add a non-facebook comment)
Home | FAQs | Privacy | Terms | Advertise | Contact
Top 100 Tab Sites