Give Kudos?
Are you sure you want to give kudos to Johnny_Cash?

Add To Songbook?
Are you sure you want to add this song to your songbook?


3,284 bands | 38,006 songs
Search: Register FREE! | Login
Browse Songs:
Browse Bands:
Tool Panel
Discuss This Song

1 2 3 4 5



Warren Brothers - Comeback (Chord)
Submitter: Johnny_Cash (0) on 3/25/05 2 comments
Month Views: 469 | Total Views: 3,935
Moderator: Stempdog218 | Report This Song?
Song Tools

Comment

Songbook

Kudos

Show Chords

Print

Comeback - Warren Brothers
Album: Well deserved obscurity
Writers: Brett Warren/Brad Warren


Note:
This is my first tab. I've been waiting for one of the pro's to do it, 
but there are so many songs to tab, i guess no one had time. 
Anyway, this is one of my favorite songs from one of the best bands out there. 
I thought i would do a rough draft, so people can view it and amend it 
(so it becomes correct). I think the intro differs from the chorus chords (but i dont know what it is). 
Cheers Guys.


G       =   320033                
Csus2/B =   01002x 	 
Am7 	 =   01020x
F 	 =   112300
Dsus2   =   032000
B 	 =   23332x


Am          Dsus2          F                   G
New Mexico, new diet coke, new taxes for the same pack of smokes
New Presedent, new precendents, new music aint got no soul
New Hollywood, new generation, new jugs for a new sensation
American cars made overseas,new parkinglots that used to be trees


chorus

C Csus2/B Am7 F

(for the strumming pattern - just listen to the beat) 
e--0----0----0----1--1-1-1---------------------------------|
B--1----1----1----1--1-1-1---------------------------------|
G--0----0----0----h2-2-2-r0--------------------------------|
D--2----0----2----3--3-3-3---------------------------------|
A--3----2----0----0--0-0-0---------------------------------|
E--0----x----x---------------------------------------------|

I like the way it used to be
When we were in love so wild and free
Baby come back, come back, come back to me



verse

Am Dsus2 F G

New attitude, wo is me, now every little girl needs therapy
New politics, new set of rules, brand new problems from a new set of fools
New nightclubs, same old scene, 40 year olds trying to look 18
235 beers on tab, i order a Bud the bartender just laughs



chorus

C Csus2/B Am7 F:

(for the strumming pattern - just listen to the beat) 
e--0----0----0----1--1-1-1---------------------------------|
B--1----1----1----1--1-1-1---------------------------------|
G--0----0----0----h2-2-2-r0--------------------------------|
D--2----0----2----3--3-3-3---------------------------------|
A--3----2----0----0--0-0-0---------------------------------|
E--0----x----x---------------------------------------------|

I like the way it used to be
When we were in love so wild and free
Baby come back, come back, come back to me



solo

Am Dsus2 F G x 2


F 	        C             G              C
look what youve done, to this world so right

F       c       G   B    C
Just by telling me goodbye



chorus


I like the way it used to be
When we were in love so wild and free
Baby come back, come back, come back to me

       v   v      v   v      v   v
e----0-0-0-0----0-0-0-0----0-0-0-0----1--1-1-1-------------|
B----1-1-1-1----1-1-1-1----1-1-1-1----1--1-1-1-------------|
G----0-0-0-0----0-0-0-0----2-2-2-2----h2-2-2-r0------------|
D----2-2-2-2----0-0-0-0----2-2-2-2----3--3-3-3-------------|
A--3-3-3-3-3--2-2-2-2-2--0-0-0-0-0----0--0-0-0-------------|
E---------------X-X-X-X------------------------------------|

(Repeat 2 - 3 times, then fade out on: C Csus2/B Am7 F
 
 Comments (click here to add a non-facebook comment)
Can somebody please tab - Running out of heroes. Ive submitted the lyrics. Cheers

-Johnny_Cash | 3/25/2005
I've been looking for someone to post a draft for this song on this website, and it seems pretty accurate. I think you are right though, and it may need a couple of changes. A good addition to the Warren Brothers tablature at Countrytabs.com. Look forward to hearing more from you.
-EMIrecords_exec | 3/26/2005
Home | FAQs | Privacy | Terms | Advertise | Contact
Top 100 Tab Sites