Give Kudos?
Are you sure you want to give kudos to Andrew?

Add To Songbook?
Are you sure you want to add this song to your songbook?


2,750 bands | 35,293 songs
Search: Register FREE! | Login
Browse Songs:
Browse Bands:
Tool Panel
Discuss This Song

1 2 3 4 5



Warren Brothers - Hey Mr President (Intro)
Submitter: Andrew (0) on 12/18/04
Month Views: 7 | Total Views: 2,338
Moderator: Stempdog218 | Report This Song?
Song Tools

Comment

Songbook

Kudos

Show Chords

Print

Thanks To Palamino on a great job on this
song. The only thing I hear different is the 
intro. Capo 1st fret

       G                   Cadd9
e---------3-3--3-------------3-3--3----------------
b---------3-3--3-------------3-3--3----------------
g---------2-2--0-------------2-2--0----------------
d--------------------------------------------------
a--------------------------3-----------------------
e-----3--------------------------------------------

    D                         G

e--------3-3--2-----------------3-3--3--------------
b--------3-3--3-----------------3-3--3--------------
g--------2-2--2-----------------2-2--0--------------
d---0---------0-------------------------------------
a---------------------------------------------------
e-----------------------------3---------------------

I put the bass notes in just for reference. It sounds
best with some ad lib picking through the chords
to let the notes ring and upstrokes on the high strings.
Thanks again Palamino.

 Comments (click here to add a non-facebook comment)
Home | FAQs | Privacy | Terms | Advertise | Contact
Top 100 Tab Sites