Give Kudos?
Are you sure you want to give kudos to rebel01?

Add To Songbook?
Are you sure you want to add this song to your songbook?


2,729 bands | 35,172 songs
Search: Register FREE! | Login
Browse Songs:
Browse Bands:
Tool Panel
Discuss This Song

1 2 3 4 5



Waylon Jennings - Good Ol' Boys (Tab)
Submitter: rebel01 (0) on 3/20/04 8 comments
Month Views: 4 | Total Views: 29,419
Moderator: rdgrubbs | Report This Song?
Song Tools

Comment

Songbook

Kudos

Show Chords

Print

Song: Good Ol' Boys
Artist: Waylon Jennings
Submitted by: rebel01

This tab contains the riffs from the beginning song on the Dukes of Hazzard and 
both versions of the instrumental played at the end of the show.  The first 
ending version was played in the earlier episodes of the show from '79 to the 
early 80's.  The second ending was then played  for the remainder of the 
episodes.  This is the first time I am submitting a tab, so hopefully I 
transcribe, copy, and paste correctly.   Also, if anyone has solo material 
for "Are You Sure Hank Done It This Way" please submit it.  It will be greatly 
appreciated, thanks!  Chords  C7, F, and Bb go well with the riffs.



Intro Riffs:

E straightenin'-------------------flattenin'---------------------------
B the curves ------6------6-------the hills---------------------------- 
G --------------3/5 5------3 2----------------6 5 33 333---------------
D --------------------------------------------6 5 33 333---------------
A ---------------------------------------------------------------------
E ---------------------------------------------------------------------


E but the law---------------a little bit-------------------------------
B never will----------------more than the-----6-----------   1 --------
G---------------------------law will-------3/5----5----3 2 3 2-------
D------------------3 3------allow--------------------------------------
A---------------3h5----------------------------------------------------
E----------------------------------------------------------------------

E just two-----------------wouldn't change----------------------------- 
B good ol'----4/6 4 1------if they could-------------------------------
G boys--------3/5 3 2-----------------------6 5 3----------------------
D-------------------------------------------6 5 3----------------------
A----------------------------------------------------------------------
E----------------------------------------------------------------------


Ending #1

E------5------- ------------------- -------5-------- -1 0-------------- 
B--8br--------- --------------1---- ---8br---------- -----3 1 1 3br 1--
G---------7b 5- ------------------- ----------7b 5-- ------------------
D-------------- --------1h2h3------ ---------------- ------------------
A-------------- ------------------- ---------------- ------------------
E-------------- ------------------- ---------------- ------------------

E------------------------------------------ ---------------------------
B------------------------------------------ ----888------10br 8 10b----
G--7b 7br-----5 7br 5---------------------- 7/9------------------------
D-----------------------7br----5-5--------- ---------------------------
A-------------------------------7 7 5 7---- ---------------------------
E--------------------------------------8--- ---------------------------

E------------------------------------------ ---------------------------
B--88 10br 88---- 88 10br 8-----10b 8------ 888 10br 88----------------
G---------------------------9-------------- ------------------555------
D------------------------------------------ -------------55 7----------
A------------------------------------------ ---------------------------
E------------------------------------------ ---------------------------

E--8--5--------------------------or--20--17----------------------------
B-- 8--8--6 5--------------------------20--20--18 17-------------------
G---------------7br 5-----4 4/5-----------------------19br17---16 16/17 
D----------------------------------------------------------------------
A----------------------------------------------------------------------
E----------------------------------------------------------------------

Ending #2

E--5---5------ --5---5-------- ----------------------------------------
B--8br-------- --8br---------- ----------------------------------------
G---------7b 5 ---------7b 7 5 --5 7 5 7brbr 5 7br 7 5 ----------------
D------------- --------------- -------------------------7br 5h7p5------
A------------- --------------- ----------------------------------------
E------------- --------------- ----------------------------------------

E------------- -----8------ -------------------------------------------
B------------- ------------ --5/8 888 888 10br 88-----8 10 12/---------
G--------555--  7b-----7r 5 -------------------------------------------
D--7 5 7------ ------------ -------------------------------------------
A------------- ------------ -------------------------------------------
E------------- ------------ -------------------------------------------

E------------------------------------- -------------- -----15----------
B--888 10br 88------------------------ --5/8 888----- -----------------
G-------------------------555  55 5555 -------------- 14b--------------
D-------------------5 5  7------------ -------------- -----------------
A------------------------------------- -------------- -----------------
E------------------------------------- -------------- -----------------

E----------------------------------------1 1 0-------------------------
B--8 88 10br 88-----5-----555------------1 1 1-------------------------
G---------------------5 7----------------2 2 0-------------------------
D----------------------------------------3 3 2-------------------------
A----------------------------------------3 3 3-------------------------
E----------------------------------------1 1 x-------------------------


 Comments (click here to add a non-facebook comment)
Does anyone know where you can get the version used on the show?It is different from the version on the "hits" cd I`ve heard.I can`t seem to find it.
-wrempel | 5/14/2005
I don't know where to get the TV show version either, so I just recorded it off the TV when the show came on. Now that it's back on the air on CMT, you should have several chances to do the same if you wish to.
-rebel01 | 5/15/2005
Could anyone tab out the tv show versin, i cant do tabbing): It would help lots!!!
-kenny89 | 5/18/2005
The above tab is from the TV version.
-rebel01 | 5/22/2005
That ending theme seems way off? Does anyone agree? Season 1 ending.
-haljordan28 | 1/6/2006
The bottom portion of ending #1 is the steel guitar riff played at the end of the credits. Both riffs on the bottom portion are the same notes, just two different positions on the guitar neck. That is why I put the word "or" between them on the top line so you can decide to either play the first riff and sound like guitar or play the second riff and sound like steel guitar. Hopefully that helps to answer the above comment/question.
-rebel01 | 1/6/2006
How does Waylon play it with or without a capo?
-fenderteleman14 | 1/14/2006
Does anyone know if Waylon used any effects or pedals when playing?
-fenderbender14 | 2/5/2006
Home | FAQs | Privacy | Terms | Advertise | Contact
Top 100 Tab Sites