Give Kudos?
Are you sure you want to give kudos to AJ_Love?

Add To Songbook?
Are you sure you want to add this song to your songbook?


2,728 bands | 35,168 songs
Search: Register FREE! | Login
Browse Songs:
Browse Bands:
Tool Panel
Discuss This Song

1 2 3 4 5



Waylon Jennings - Lonesome, Ornry And Mean (Intro)
Submitter: AJ_Love (0) on 4/25/06
Month Views: 55 | Total Views: 13,164
Moderator: rdgrubbs | Report This Song?
Song Tools

Comment

Songbook

Kudos

Show Chords

Print

"Lonesome, On'ry, and Mean" Intro 

-------------------------------------------------- 
--------------------------------3----------------- 
----------------2---2----5----------5---2----4- 
-0---(sl)--4------------------------------------- 
-------------------------------------------------- 
-------------------------------------------------- 

-------------------------------------------- 
-------------------------------------------- 
----------7----10----7---------7----7---- 
-7---9---------------------9-------------- 
------------------------------------------- 
------------------------------------------- 

----------------------------------------- 
-3--------------------------------------- 
------5----3----------------------------- 
-----------------5---------------3------- 
-----------------------3---5----------5-- 
------------------------------------------

 Comments (click here to add a non-facebook comment)
Home | FAQs | Privacy | Terms | Advertise | Contact
Top 100 Tab Sites