Give Kudos?
Are you sure you want to give kudos to taylor7458?

Add To Songbook?
Are you sure you want to add this song to your songbook?


2,418 bands | 32,320 songs
Search: Register FREE! | Login
Browse Songs:
Browse Bands:
Tool Panel
Discuss This Song

1 2 3 4 5





Willie Nelson - Ain't Goin' Back To Broke Back Mountain Complete (Tab)
Submitter: taylor7458 (4) on 6/13/10
Month Views: 158 | Total Views: 7,540
Moderator: Stempdog218 | Report This Song?
Song Tools

Comment

Songbook

Kudos

Show Chords

Print

Ain't goin' back to Brokeback Mountain
Willie Nelson
Key B major
Tab by Jack  Please correct if you find something wrong.
PLEASE LEAVE KUDOS  PLEASE!!!!!!!!
Intro B
B                                                         F#                B
Why. I've been up the Chisholm trail   Been through death Valley Hot as hell
                                                               
B                                                        F#              B
I rode across the dusty plains,  There's cowboy runnin' through my veins

B
But I aint' goin' down on Brokeback mountain
B
No I aint' goin' down on Brokeback mountain

B                                        F#
That S**t ain't right   (That S**t ain't right)
                B
That S**t ain't right   (That S**t ain't right)

B                                                                   F#         B
Why I've watched the herd from dusk till dawn  But I did it with my britches on
B                                                              F#         B
You can have a chew you can bum a smoke  But don't go reaching for my rope

B
I aint' goin' down on Brokeback mountain
B
No I aint' goin' down on Brokeback mountain
B                                      F#
That S**t ain't right (That S**t ain't right)
                B
That S**t ain't right (That S**t ain't right}

Harmonica Solo for guitar
-11-14--14--11-14-16-14-11-14-14----19-14-11--14-11---11---
----------------------------------------------------14---12-
------------------------------------------------------------
------------------------------------------------------------
------------------------------------------------------------
------------------------------------------------------------

Harmonica solo for the harmonic  (B harmonica)
5  6  6  5  6  6  6  5  6  6  7  6  5  6  5  4  5  4
B  B  B  B  B  D  B  B  B  B  B  B  B  B  B  D  B  B


Guitar Solo
-------------------------------------------8------
-------------------------7-7-6-5-4----------------
--4-4--7--4-4-4-4-4-7-4-------------7-6-4---------
--------------------------------------------------
--------------------------------------------------
--------------------------------------------------

B
Whoa Willie that last note sounded a might queer
---------------------------------------------------
----------------------3h4----------------------3h4-
---------------------------------------------------
---------------------------------------------------
---------------------------------------------------
---------------------------------------------------

Bridge
         G#m                 F#         E        
         What you do is your business hoss 
-------------------------------------------------
-------------------------------------------------
---------4---------------------------------------
---------6---------------------------------------
---------6---------------------------------------
-6-7-6---4----------------------------------0-2-4

G#m                   E         F#
You can buy me a beer then f**k off

B
But I aint' goin' down on Brokeback mountain
B
No I aint' goin' down on Brokeback mountain
B                                      F#
That S**t ain't right (That S**t ain't right)
                B                                                      
That S**t ain't right (That S**t ain't right)
B                                      F#
That S**t ain't right (That S**t ain't right)
                B 
That S**t ain't right (That S**t ain't right)

B                                      F#
That S**t ain't right (That S**t ain't right)
                B 
That S**t ain't right (That S**t ain't right)

B	B	B  F# B

(Spoken)
That S**t ain't right  
Oooh What the hell
Oh that's my saddle horn thanks goodness
 Comments (click here to add a non-facebook comment)
Home | FAQs | Privacy | Terms | Advertise | Contact
Top 100 Tab Sites