Give Kudos?
Are you sure you want to give kudos to madtabber?

Add To Songbook?
Are you sure you want to add this song to your songbook?


2,722 bands | 35,151 songs
Search: Register FREE! | Login
Browse Songs:
Browse Bands:
Tool Panel
Discuss This Song

1 2 3 4 5



Willie Nelson - Always On My Mind (solo) (Tab)
Submitter: madtabber (1) on 12/11/05 2 comments
Month Views: 58 | Total Views: 26,447
Moderator: Stempdog218 | Report This Song?
Song Tools

Comment

Songbook

Kudos

Show Chords

Print

madtabber at gmail.com
This is the solo for one of
Willie Nelsons best songs.
Always On My Mind
Enjoy

Guitar 1
                                                                         
-------2-3--5----3--2--|--2------0-2-0---------|---------0--0-----------|
-----------------------|-----------------------|------3-----------3-2-0-|
-----------------------|-----------------------|------------------------|
-----------------------|-----------------------|------------------------|
-----------------------|-----------------------|------------------------|
-----------------------|-----------------------|------------------------|
Guitar 2
                                                   
----------5--7--5-----3-2--3--2-|--------3-2-3-2----0-----|
-------7------------------------|-------------------------|
--------------------------------|-------------------------|
--------------------------------|-------------------------|
--------------------------------|-------------------------|
--------------------------------|-------------------------|


                                                                     
-------------0--0-2---0---------|---4-0-0--7-4-4--12-7-7--16-12-12--|
------0-2-3-------------3-2--0--|-------0------5-------9--------12--|
--------------------------------|-----------------------------------|
--------------------------------|-----------------------------------|
--------------------------------|-----------------------------------|
--------------------------------|-----------------------------------|


                                                                                
---15-----------------
---15-----------------
----------------------
----------------------
----------------------
----------------------
                                 
|------17------17-------------|
|----------15-------15--15----|
|-----------------------------|
|-----------------------------|
|-----------------------------|
|-----------------------------|
 Comments (click here to add a non-facebook comment)
I don't think he uses bend in this song, but
I think you're missing hammer-ons, pull-offs
and slides in between some of the notes.It's
a good tab, and it looks right, but it must
be wherever you prefer to use h-o's and p-o's and slides.It looks better than the way
that I play it.Its a good tab.
-macg1 | 12/11/2005
Yeah I forgot to put in the bends and pull of's, Ill do that at a later time sorry.
-madtabber | 12/11/2005
Home | FAQs | Privacy | Terms | Advertise | Contact
Top 100 Tab Sites