Give Kudos?
Are you sure you want to give kudos to txjonc?

Add To Songbook?
Are you sure you want to add this song to your songbook?


2,722 bands | 35,147 songs
Search: Register FREE! | Login
Browse Songs:
Browse Bands:
Tool Panel
Discuss This Song

1 2 3 4 5



Willie Nelson - Blue Eyes Crying In The Rain Solo (Tab)
Submitter: txjonc (1) on 3/7/04 4 comments
Month Views: 29 | Total Views: 23,483
Moderator: Stempdog218 | Report This Song?
Song Tools

Comment

Songbook

Kudos

Show Chords

Print

Blue Eyes Crying In The Rain

e----------------------------------------------
b----------------------------------------------
g---9-11-13--13-13-13^(14)-13---9-13^(14)-13-9-
d-9---------------------------9----------------
a----------------------------------------------
e----------------------------------------------

e------------------------------------ 
b---12---11-10----------------12--12- 
g-13---12---11--13-11---11/13---13---
d---------------------9-------------- 
a------------------------------------ 
e------------------------------------ 

e-------------------------------------------------------
b-------------------------------------------------------
g---9-11-13--13-13-13^(14)-13----9-11-13-13^(14)^(13)-9- 
d-9----------------------------9------------------------
a-------------------------------------------------------
e-------------------------------------------------------

e----------------------------------------------------------
b------------------------------------------4----3------3-2-
g-(14)^13-11-13-11--13-11---11/13-11-9---2----1------0---2-
d--*----------------------9------------------------------2-
a---------------------------------------3----2----2-1----0-
e----------------------------------------------------------
   *Pre bend the g string at the 13th to the 14th
    pick and release to the 13th. 

 Comments (click here to add a non-facebook comment)
Great Job. Sounds Perfect.
-nunzbomb | 12/2/2004
If you were a real willie nelson fan you would know that he uses a Marin N-20 classical guitar, which only has 12 open frets. He never really uses anything past 12, you could see that if you watched him. But sounds alright.
-conwayjones | 4/20/2004
I appreciate your comment and yes, I'm aware that "Trigger"
is a 1969 Martin N-20 Classical guitar. This tab is my take
on Willie's solo and I hope you got something out of it.
I'll look forward to your next tab.
Keep Pickin'
JC
-txjonc | 4/21/2004
It works actually quite well if you take out the 14th fret and just bend the 13th, not bad at all, thanks
-mxzman | 9/28/2005
Home | FAQs | Privacy | Terms | Advertise | Contact
Top 100 Tab Sites