Give Kudos?
Are you sure you want to give kudos to uhrc?

Add To Songbook?
Are you sure you want to add this song to your songbook?


3,241 bands | 37,865 songs
Search: Register FREE! | Login
Browse Songs:
Browse Bands:
Tool Panel
Discuss This Song

1 2 3 4 5



Zac Brown Band - As She's Walking Away (Intro)
Album: You Get What You Give (2010)
Submitter: uhrc (1) on 1/2/11
Month Views: 638 | Total Views: 12,997
Moderator: blugraspickr | Report This Song?
Song Tools

Comment

Songbook

Kudos

Show Chords

Print

	As she walkin away  (INTRO)--Zac Brown Band

	Standard Tuning--Capo 1st


	E--2----222-------2---222-----------333333
	B--3----333-------3---333-----------333333
	G--0h2--222--0-0--0h2-222--0--------000000
	D-------------4-------------4-2-0h2-000000
	A-----------------------------------222222
	E-----------------------------------------


	E------000000---5320----000
	B------222222-------3---222
	G------222222--------2--222
	D----0-222222-----------222
	A--0h2-000000-----------000
	E--------------------------
 Comments (click here to add a non-facebook comment)
Home | FAQs | Privacy | Terms | Advertise | Contact
Top 100 Tab Sites