Give Kudos?
Are you sure you want to give kudos to mackseward2318?

Add To Songbook?
Are you sure you want to add this song to your songbook?


3,307 bands | 38,091 songs
Search: Register FREE! | Login
Browse Songs:
Browse Bands:
Tool Panel
Discuss This Song

1 2 3 4 5



Billy Currington - Pretty Good At Drinkin' Beer (Intro)
Submitter: mackseward2318 (5) on 7/13/12
Month Views: 474 | Total Views: 3,502
Moderator: dantheman85x | Report This Song?
Song Tools

Comment

Songbook

Kudos

Show Chords

Print

Capo on the 3rd Fret
Drop D Tuning
 

    U   D  U          U  D
E|--2---2--2-------------------------------------------2--
B|--3---3--3----------2--2-----------------------------3--
G|--2---2--2----------2--2-----------------------------2--
D|--0---0--0--4--2----2--2---4--------4----2--0-----0--0--
A|--0---0--0-----0----0--0------5--5-------------2-----0--
E|--0---0--0--------------------5--5-------------------0--



E|-2-------------------------------------------2----------
B|-3----------2--2-----------------------------3----------
G|-2----------2--2-----------------------------2----------
D|----4--2----2--2---4--------4----2--0-----0--0----------
A|-------0----0--0------5--5-------------2-----0----------
E|----------------------5--5-------------------0----------



http://youtu.be/jio7SYQ63B0
 Comments (click here to add a non-facebook comment)
Home | FAQs | Privacy | Terms | Advertise | Contact
Top 100 Tab Sites