Give Kudos?
Are you sure you want to give kudos to mammy?

Add To Songbook?
Are you sure you want to add this song to your songbook?


2,831 bands | 36,024 songs
Search: Register FREE! | Login
Browse Songs:
Browse Bands:
Tool Panel
Discuss This Song

1 2 3 4 5



Charlie Robison - Walter (Intro)
Submitter: mammy (15) on 9/2/03
Month Views: 19 | Total Views: 3,207
Moderator: raybauer | Report This Song?
Song Tools

Comment

Songbook

Kudos

Show Chords

Print

Walter - intro
by Charlie Robison

e-------------------------------------e
B-------------------------------------B
G-------------------------------------G  4x (4th time through,
D------------------------0------------D      do not play the last
A---0--2--4------------0--------------A      two notes)
E-----------0-0--0-0-2----------------E
                                                                              
Outro (starts at 3:32)
e-------------------------------------e
B-------------------------------------B
G------------------------0------------G    3x
D---0--2--4------------0--------------D
A-----------0-0--0-0-2----------------A
E-------------------------------------E
                                                                              
enjoy :)
mammycc_05 at yahoo.com
 Comments (click here to add a non-facebook comment)
Home | FAQs | Privacy | Terms | Advertise | Contact
Top 100 Tab Sites