Give Kudos?
Are you sure you want to give kudos to mkrousie?

Add To Songbook?
Are you sure you want to add this song to your songbook?


2,732 bands | 35,223 songs
Search: Register FREE! | Login
Browse Songs:
Browse Bands:
Tool Panel
Discuss This Song

1 2 3 4 5



Justin Moore - Till' My Last Day (Lead)
Submitter: mkrousie (0) on 10/12/12
Month Views: 4 | Total Views: 6,812
Moderator: dantheman85x | Report This Song?
Song Tools

Comment

Songbook

Kudos

Show Chords

Print

Justin Moore:  Til' My Last Day
Intro:
e[--------------------------------------------------------]
b[--15p14-17--17-15-14-14\10------------------------------]
g[--------------------------------------------------------]
D[--------------------------------------------------------]
A[--------------------------------------------------------]
E[--------------------------------------------------------]

e[--12/14-14\12--12-10-9-9\5------------------------------]
b[-------------------------------------5/7-7\5------------]
g[--------------------------------------------------------]
D[--------------------------------------------------------]
A[--------------------------------------------------------]
E[--------------------------------------------------------]


Guitar Solo:
e[--12/14-14-14\12--12------------------------------------]
b[-----------------------------14-12-10-10h12p10----------]
g[--------------------------------------------------------]
D[--------------------------------------------------------]
A[--------------------------------------------------------]
E[--------------------------------------------------------]

e[-------------------------------12/17-17-14-12-----------]
b[--10h12p10-10h12p10-------------------------------------]
g[--------------------------------------------------------]
D[--------------------------------------------------------]
A[--------------------------------------------------------]
E[--------------------------------------------------------]

e[--15-14---15-14-----14------14--------------------------]
b[-------15-------15----15-12---15-12/19-17---------------]
g[--------------------------------------------------------]
D[--------------------------------------------------------]
A[--------------------------------------------------------]
E[--------------------------------------------------------]

E[--------------------------------------------------------]
B[--12-12h14p12----12-12h14p12-12h14/17-------------------]
g[--------------------------------------------------------]
D[--------------------------------------------------------]
A[--------------------------------------------------------]
E[--------------------------------------------------------]
 Comments (click here to add a non-facebook comment)
Home | FAQs | Privacy | Terms | Advertise | Contact
Top 100 Tab Sites