Give Kudos?
Are you sure you want to give kudos to ermapoop?

Add To Songbook?
Are you sure you want to add this song to your songbook?


2,728 bands | 35,168 songs
Search: Register FREE! | Login
Browse Songs:
Browse Bands:
Tool Panel
Discuss This Song

1 2 3 4 5



Kenny Chesney - There Goes My Life (corrected) (Intro)
Album: When The Sun Goes DOwn (2003)
Submitter: ermapoop (3) on 12/12/03 10 comments
Month Views: 16 | Total Views: 13,903
Moderator: Ray Terry | Report This Song?
Song Tools

Comment

Songbook

Kudos

Show Chords

Print

This is relative to the capo being on the second fret.

-------------------------
-------3-----------------
-2p0-----2-----0-2-------
-----4-----2h4-----0h2---
-------------------------
-------------------------


--------------------0----
-------3------------2----
-2p0-----2-----0-2--2----
-----4-----2h4------2----
--------------------x----
--------------------x----
 Comments (click here to add a non-facebook comment)
your missing 2 notes after 5th note.
-jamien56 | 12/24/2003
I am new to tabs. What does 'p' in 2p0 mean?
-dcoppick | 2/2/2004
it means pull off
-agarofalo | 2/3/2004
does anyone have this song in chords because i am new at this and I dont know how to readd the tabs very well thanx
or if you could explain it in an email or something that would work too
Thanx again
-BIllself | 2/17/2004
I think there is a section that tells you how
to read tabs on this site. I think it's
called What is a Tab?
-jesusfreak_dct | 5/23/2004
this tab sux
-sean225 | 10/5/2004
sean its actually a good tab if you know how
to read it dont blame the tabber for your
lack of talent
-AcousticCowboy1 | 11/5/2004
I don't think any notes are missing. I prefer to slide rather than hammer the 2/4, but I like your way, too.
-jjmccro | 7/7/2005
it should go like this
---------|-------|-------|------0---|
-------3-|----3--|-------|-------3-3|
--2p0----|---0---|---0-2-|---2----2-|
-----4---|2h4----|0h2----|--4-4-----|
---------|-------|-------|0---------|
---------|-------|-------|----------|

-------|------|-----------|
------3|-----3|--------2~-|
--2p0--|----0-|---0-2--2~-|
-----4-|-2h4--|0h2-----2~-|
-------|------|-----------|
-------|------|-----------|
-1guitar06 | 7/10/2005
this tab is terrible
-Adam223 | 11/20/2005
Home | FAQs | Privacy | Terms | Advertise | Contact
Top 100 Tab Sites