Give Kudos?
Are you sure you want to give kudos to Moosehead_07?

Add To Songbook?
Are you sure you want to add this song to your songbook?


2,945 bands | 36,581 songs
Search: Register FREE! | Login
Browse Songs:
Browse Bands:
Tool Panel
Discuss This Song

1 2 3 4 5



Kenny Chesney - There Goes My Life (intro 1) (Intro)
Album: When The Sun Goes DOwn (2003)
Submitter: Moosehead_07 (0) on 1/6/05 4 comments
Month Views: 129 | Total Views: 5,915
Moderator: Ray Terry | Report This Song?
Song Tools

Comment

Songbook

Kudos

Show Chords

Print


->  Capo 2

-------------------------------------------
-------3-----0-3-----------------4---------
-2p0-----0h2---------0-2p0-----0-----------
-----4-----------2/4-------0h2-------------
-------------------------------------------
-------------------------------------------

 I've listened to this song a million times. This is what I hear.Notify me for errors.
 Comments (click here to add a non-facebook comment)
how do you play it w/ out a capo?
-Chloeal | 1/11/2005
I'll get back to you on that
-Moosehead_07 | 2/19/2005
Try this and let me know what you think.

-> Capo 2

------------------------------
-------3----------------------
-2p0------2-----0--2----------
-----4------2h4------0h2------
------------------------------
--------------------------------

-cherylh | 3/25/2005
Try your way and play it with the song. Then try mine. you'll see your way in missing notes. Kenny keeps picking but your way has breaks. but good try on the tab.
-Moosehead_07 | 3/25/2005
Home | FAQs | Privacy | Terms | Advertise | Contact
Top 100 Tab Sites