Give Kudos?
Are you sure you want to give kudos to Deleted Member?

Add To Songbook?
Are you sure you want to add this song to your songbook?


2,751 bands | 35,342 songs
Search: Register FREE! | Login
Browse Songs:
Browse Bands:
Tool Panel
Discuss This Song

1 2 3 4 5



Mark Chesnutt - Goin' Through The Big D (Intro)
Album: What A Way To Live (1994)
Submitter: Deleted Member (0) on 1/27/02
Month Views: 13 | Total Views: 9,478
Moderator: dantheman85x | Report This Song?
Song Tools

Comment

Songbook

Kudos

Show Chords

Print

Intro                                                      
E---|-------------------------------------------------------------------
B---|-------------------------------------------------------------------
G---|-------------------------------------------------------------------
D---|--------------------------3--------------3--2--1-------------------
A---|--3^^--1--1--------1h3/5-----1--1-----------------3^--1--1---------
E---|-------------3--1------------------3--1---------------------3------
                                                                        

                                                                        
E-----------------------------------------------------------------------
B-----------------------------------------------------------------------
G-----------------------------------------------------------------------
D-------------3--------------3--2--1------------------------------------
A------1h3/5-----1--1-----------------3^--1-----------------------------
E---1------------------3--1---------------------------------------------
 Comments (click here to add a non-facebook comment)
Home | FAQs | Privacy | Terms | Advertise | Contact
Top 100 Tab Sites